Guitar Tabs, Chords and Lyrics


I Dont Want To Know  Goo Goo Dolls



[Em-D-C2]                                     
Chorus 1:
[Em]I don't want to [D]know the [C2]reasons why love keeps
[Em]Right on [D]walking on [C2]down the line
[Em]I don't [D]understand [C2]you and me
Baby, I,[Em] I just [D]want you to be [C2]mine

Verse:
(on D and C2, play only the top three strings (G, B, and E)
[Em]    [D]Finally [C2]baby
[Em]  The [D]truth has come [C2]down now
[Em]   And now ya [D]listen to your [C2]spirit
Em D(full) C2(full)
It's crying out loud now

Bridge:
G(III) C(III) D(V)
Tryin' to believe yeah
G(III) C(III) D(V)
You say you love me, but you don't know
G(III) C(III) D(V)
You got me rocking and a-reeling
[A-B-D]Oh

Chorus2:
[G]I don't want to [D]know the [C2]reasons why love keeps
[Em]  Right on [D]walking on [C2]down the line
[G]  I don't [D]understand [C2]you and me
Baby, I, [Em]I just want [D]you to be [C2]mine
Won't you to be mine?

(verse)
Finally baby
* play fill 1 on "truth"
The truth has been told
And now you tell me that I'm crazy
Now it's nothing that I didn't know

(bridge)
Tryin' to survive now
You say you love me, but you don't know
You got me rocking and a-reeling
Oh

(chorus2)
I don't want to know the reasons why love keeps
Right on walking on down the line
I don't understand you and me
Baby, I, I just want you to be mine
Make you to be mine

Solo:

e --------------------------|------------------------------
B --10b(12)--10-8-7--8-7----|--------7h8p7-----------------
G -----------------------9--|----7h9-------9---7-5-4h5p4---
D --------------------------|----------------------------4-
A --------------------------|------------------------------
E --------------------------|------------------------------
e --------------------------|--------------------------------
B -------------7-8--8--10-8-|--10/-12--12-10-----------10-12-
G -4-5-7--7-/9--------------|----------------12--11-12-------
D --------------------------|--------------------------------
A --------------------------|--------------------------------
E --------------------------|--------------------------------


(lightly slide into the notes on this part)
(this part is actually doubled)
e -10-----------------------|-10-----------------------
B -----12-------------------|-----12-------------------
G ---------12-----12h14p12--|---------12-----12h14p12--
D --------------------------|--------------------------
A --------------------------|--------------------------
E --------------------------|--------------------------
e -10-----------------------|-10-----------------------
B -----12-------------------|-----12-------------------
G ---------12-----12h14p12--|---------12-----12h14p12--
D --------------------------|--------------------------
A --------------------------|--------------------------
E --------------------------|--------------------------
e -10-----------------------|-7------------------------
B -12--10--8---7---5--------|----5--8---7---5----------
G --------------------7-----|------------------7-------
D --------------------------|--------------------------
A --------------------------|--------------------------
E --------------------------|--------------------------
e -7-----------------|-------------------------10-10-10-10-
B ----5--8---7--5----|-5-5-5-5-7-7-7-7-8-8-8-8-10-10-10-10-
G -----------------7-|-------------------------------------
D -------------------|-------------------------------------
A -------------------|-------------------------------------
E -------------------|-------------------------------------


[Em]                                     
(bridge)
Tryin' to believe in
You say you love me, but you don't know
You got me rocking and a-reeling
Oh

(chorus2)
I don't want to know the reason why love keeps
Right on walking on down the line
I don't understand you and me
Baby, I, I just want you to be mine
Make you to be mine

Outro:
[Em-D-C]       Gonna make you to be mine
[Em-D-C]       Gonna make you to be mine
[Em-D-C]       Wanna make you to be mine
[Em-D-C]       Oh, won't you be mine, mine, mine
[Em-D-C]       Won't you be mine
[Em-D-C]       Won't you make up your mind?
[Em-D-C]                                     
------------


Fill 1:

e -------------------------
B -------------------------
G ---------4--------4------
D ---4h5-5----4h5-5--------
A -------------------------
E -------------------------


This file is copyright goo@soong.heinous.net, 1998. You are
free to use it for your personal or educational use, but permission must
be granted to post this transcription. Thank you.

Important: The song above is NOT stored on the Chordie server. The original song is hosted at www.guitaretab.com. Chordie works as a search engine and provides on-the-fly formatting. Chordie does not index songs against artists'/composers' will. To remove this song please click here.

Text color:
Chord color:
Chord grids: 
Font size:    
Page size: 

C2 D Em G
variations - click chord images

Login - add to songbook

Transpose chords

Tuning

Rating click stars to rate

Layout
Accuracy

SHARE PAGE  




You need to log in to post comments