Kevins Song

Goo Goo Dolls



e -----0------0------0------0-------0------

B -----------------------------------------
G -----------------------------------------
D -6h7----6h7----6h7----6h7----6h7---------
A -----------------------------------------
E -----------------------------------------

 E-C#m-G#m6-A2
 G#5-A5-C#5-A5
(riff)

 E-C#m-G#m6-A2
 G#5-A5-C#5-A5
(riff)

 E-C#m-G#m6-A2
 G#5-A5-C#5-A5
(riff)

 E
(break)

 C#5-C#5-C#5-C#5-C#5B5/
 G#5-A5-C#5-B5-A5
e ------0----------0-------------12b(13)r(12)b(13)r(12)b(13)--
B ------0----------0------------------------------------------
G ------1----------1------------------------------------------
D ------2----------2------------------------------------------
A ------2----------2------------------------------------------
E --4---0----------0------------------------------------------


This file is copyright goo@soong.heinous.net, 1998. You are
free to use it for your personal or educational use, but permission must
be granted to post this transcription. Thank you.









E
variations - click chord images
Transpose chords:
Tuning:
Cool service:
View: Size:
A  A  A
Rating:
Layout:
  • Currently 4.3/5 Stars.
  • 1
  • 2
  • 3
  • 4
  • 5
 
Accuracy:
  • Currently 3/5 Stars.
  • 1
  • 2
  • 3
  • 4
  • 5
 
click stars to rate
Chordie recommends:
Learn to play guitar with video-based, online guitar lessons at JamPlay.com
Songbook:
Login to add this song to your songbook
Support the artist
Preview/buy this song
MSN Music
Why this non-profit ad?

 
login to add comments/video/corrections