Guitar Tabs, Chords and Lyrics


Stay With You  Goo Goo Dolls

|------------------------|


|------------------------|


|-55555------------------|

|-------33333-5555-11111-| X2
|------------------------|
|------------------------|
|------------------------|
|-77777-55555-3-3-3-3-3--|
|-77777-55555-3-3-3-3-3--|
|-55555-33333-1-1-1-1-1--|
|-------------------7---------------7-----|
|-----10-10-------8---8--10------8---8----|
|----7------7---9--------------9-------7--|
|--9--------------------------------------|
|-----------------------------------------|
|-----------------------------------------|
[Am7]                                     
And these streets

Turn [C]me inside out

Every[Am7]thing shines
Leave[G]s me empty still
a[Am7]nd i burn this [C]lonely house down
if yo[Am7]u run with me
if you[G] run with me
Chorus:


|------------------------|
|------------------------|
|-55555------------------|

|-55555-55555-7777-33333-|
|-33333-55555-7777-33333-|
|-------33333-5555-11111-| X3
|------------------------|
|------------------------|
|------------------------|
|-77777-55555-3-3-3-3-3--|
|-77777-55555-3-3-3-3-3--|
|-55555-33333-1-1-1-1-1--|



Verse2


Prelude :


[E5]Now come in[F5] from this storm
And [E5]I taste you [F5]sweet and warm
Take what you [A5]need
Take what you [F5]need
From [C5]me
[F5]Now wake up this world
[F5]Wake up tonight
And [F5]run to me
[F5]Run to me now
Then play the intro again and finish with the chorus


verse 2 lyrics:


And im fooled by my own desire
I twist my fate
Just to feel you
But you, you turn me toward the light
And you're one with me
Will you run with me


Important: The song above is NOT stored on the Chordie server. The original song is hosted at www.guitaretab.com. Chordie works as a search engine and provides on-the-fly formatting. Chordie does not index songs against artists'/composers' will. To remove this song please click here.

Text color:
Chord color:
Chord grids: 
Font size:    
Page size: 

A5 Am7 C C5 E5 F5 G
variations - click chord images

Login - add to songbook

Transpose chords

Tuning

Rating click stars to rate

Layout
Accuracy

SHARE PAGE  




You need to log in to post comments