Guitar Tabs, Chords and Lyrics


Only One  Goo Goo Dolls



F#---------------------


B----------------0-----


G------0-----------0---


D----2---2-----2-------


A------------3---------


E--0-------------------

[F#5]I'll open up my head awhile [D5]
Its been dead for years
[F#5]Musta been a victim of my pee[D5]rs [A5]
[F#5]One is for my happiness
The [D5]other for my health
The [F#5]last is something bigger than my[D5]sel[A5]f
Break:
F#---------------------------|---------------------------------------
B----------------------------|---------------------------------------
G----------------------------|---------------------------------------
D----------------------------|---------------------------------------
A--3--3-2-2-2----0---0-2-0---|--3-3-2-2-5--5-5--5-5h7p5--------------
E--------------3---3-------3-|---------------------------------------
F#---------------------------|---------------------------------------
B----------------------------|---------------------------------------
G----------------------------|---------------------------------------
D----------------------------|---------------------------------------
A--3--3-2-2-2----0---0-2-0---|--3-3-2-2-5--5-5--5-5------------------
E--------------3---3-------3-|---------------------------------------

Chorus:
[G5]I ain't the only[B5] one, I ai[G5]n't the only one [B5]
[G5]I ain't the only[B5] one to say[C5]
(verse)
I'm talkin' to myself again
I'll just start a fight
Nobody can prove me wrong, I'm right
Anti-hero idol with a suicide excuse
A thousand other suckers will try and fill your shoes
(break)
(chorus)
I ain't the only one, I ain't the only one
I ain't the only one to say
(solo)
(chorus)
I ain't the only one, I ain't the only one
I ain't the only one to say
(bridge)
F#------------------------------------------------
B-------0------------0----------0---------0-------
G---------0------------0----------0---------0-----
D-----2------------2----------2---------2---------
A---------------------------0---------3-----------
E---0-----------3---------------------------------

Little pictures in my head are turnin' inside out again
'Cause fuckin' up takes practice I feel I'm well rehearsed
Because the past is a bully and the futures even worse
You tell me what you fear 'cause I can feel it like a curse
(verse)
Well, you used to be a folk singer, now you're just a joke singer
Ain't no smokin' dope singer, swingin from a rope singer
(chorus)
I ain't the only one, I ain't the only one
I ain't the only one to say
This file is copyright goo@soong.heinous.net, 1997. You are
free to use it for your personal or educational use, but permission must
be granted to post this transcription. Thank you.

Important: The song above is NOT stored on the Chordie server. The original song is hosted at www.guitaretab.com. Chordie works as a search engine and provides on-the-fly formatting. Chordie does not index songs against artists'/composers' will. To remove this song please click here.

Text color:
Chord color:
Chord grids: 
Font size:    
Page size: 

A5 B5 C5 D5 F#5 G5
variations - click chord images

Login - add to songbook

Transpose chords

Tuning

Rating click stars to rate

Layout
Accuracy

SHARE PAGE  




You need to log in to post comments