Guitar Tabs, Chords and Lyrics


Somethin Bad  Goo Goo Dolls



Well they're [D5]shutting all the shops up on the avenue
And they're [F#5]holding out for [G5]cheaper Chinese [D5]food
If I'm [D5]older now and have a tainted attitude
Why'd those [F#5]neon lights all [G5]lose their common[D5] blue?
Chorus:
And it's [E5]not like me to [C5]feel so im[D5]portant
And it's [E5]not like me to [C5]go and wreck your [D5]day
And I [E5]never thought I'd [C5]see it so exp[D5]loited
Ah but I [B5]know that somethin' [C5]bad has gotta c[D5]hange
Oh yes I [B5]know that somethin' [C5]bad has gotta c[D5]hange
(verse)
Well I see 'em working round the block till six a.m.
The thermometer's at minus five degrees
And I'm wondering where all that hard earned money goes
To her head or towards a shred of dignity
(chorus)
And it's not like me to feel so important
And it's not like me to go and wreck your day
And I never thought I'd see it so exploited
Ah but I know that somethin' bad has gotta change
Oh yes I know that somethin' bad has gotta change
Go!
(solo)
e------------------------------|----------------------------------------
B--3p2--3p2--3p2--3p2--3p2-3p2-|-3p2--3p2--3p2--3p2--3p2-3p2------------
G-----2----2----2----2---------|----2----2----2----2--------------------
D------------------------------|----------------------------------------
A------------------------------|----------------------------------------
E------------------------------|----------------------------------------
e------------------------------|----------------------------------------
B--8p7--8p7--10p7--8p7--8p7----|--7-------------------------------------
G-----7----7-----7----7----7---|--7-------------------------------------
D------------------------------|--5-------------------------------------
A------------------------------|----------------------------------------
E------------------------------|----------------------------------------

(2 times)
(chorus)
And it's not like me to feel so important
And it's not like me to go and wreck your day
And I never thought I'd see it so exploited
Ah but I know that somethin' bad has gotta change
Oh yes I know that somethin' bad has gotta change
Yes I know that somethin' bad has gotta change
Oh yes I know that somethin' bad has gotta change
This file is copyright goo@soong.heinous.net, 1997. You are
free to use it for your personal or educational use, but permission must
be granted to post this transcription. Thank you.

Important: The song above is NOT stored on the Chordie server. The original song is hosted at www.guitaretab.com. Chordie works as a search engine and provides on-the-fly formatting. Chordie does not index songs against artists'/composers' will. To remove this song please click here.

Text color:
Chord color:
Chord grids: 
Font size:    
Page size: 

B5 C5 D5 E5 F#5 G5
variations - click chord images

Login - add to songbook

Transpose chords

Tuning

Rating click stars to rate

Layout
Accuracy

SHARE PAGE  




You need to log in to post comments