So Far Away

Goo Goo Dolls



e --------------------|-----------------------

C --6---6-------------|-6---6----6------------
G --6-8-6-8--6--4-----|-6-8-6-8--6------------
D ----6---6--4--2-----|---6---6---------------
A --------------------|-----------------------
E --------------------|-----------------------
e --------------------|----------------------------------
C --6---6-------------|------------6-6-6-6---------------
G --6-8-6-8--6--4-----|-6/8--8-8-8-6-6-6-6-8-8-6-6-4-4---
D ----6---6--4--2-----|-4/6--6-6-6---------6-6-4-4-2-2---
A --------------------|----------------------------------
E --------------------|----------------------------------

 E5
 And I didn't get those things
 F#
 Things that you can't grow
 E5
 You say that it's all my fault
 F#5
 And I don't need to know

 E5-F#5
(chorus)
e -------------------------|--------------------------
C -------------------------|--------------------------
G -4--4-3-4--4-4--4--4-3-4-|-4--4-3-4--4-4--4--4-3-4--
D -4--4-4-4--4-4--4--4-4-4-|-4--4-4-4--4-4--4--4-4-4--
A -2--2-2-2--2-2--2--2-2-2-|--------------------------
E -------------------------|-4--4-4-4--4-4--4--4-4-4--

Tell me something I don't know
 F#5E5
 And I'll find that I'm always looking 'round behind me

e -------------------------|--------------------------
C -------------------------|--------------------------
G -4--4-3-4--4-4--4--4-3-4-|-4--4-3-4--4-4--4--4-3-4--
D -4--4-4-4--4-4--4--4-4-4-|-4--4-4-4--4-4--4--4-4-4--
A -2--2-2-2--2-2--2--2-2-2-|--------------------------
E -------------------------|-4--4-4-4--4-4--4--4-4-4--

You said that it's all been said before
 F#5E5
 Now I find that there's something I don't know

(verse)
And I hate your attitude
I ain't scared at all
'Cause it don't matter what you do
And I'll turn around to see the truth
You're tearing it down, yeah, you're bringing it down
And it's all on you

(bridge)
And I didn't get those things
Things that you can't grow
You say that it's all my fault
And I don't need to know

(chorus)
Tell me something I don't know
And I'll find that I'm always looking 'round behind me
You said that it's all been said before
Now I find that there's something I don't know

(solo)
G#5-B5-F#5-E5 (2x)

 E5F#5
 And I know  
 E5
I don't know
(Rock and roll) F#5
 E5F#5
 And I say that  
 E5
 If you break enough glass and there's no one to hear
 F#5
And your heart's full of hate
'Cause your mind's full of fear

(riff)
Let it go

(riff)
So far away
So far away
So far away
Oh so far away
So far away
So far away

Outro: (repeat and fade)
e ----------------------------
C --11--11----10--------------
G ----------------11----------
D ----------------------------
A ----------------------------
E ----------------------------


This file is copyright goo@soong.heinous.net, 1997. You are
free to use it for your personal or educational use, but permission must
be granted to post this transcription. Thank you.


E5 F# F#5
variations - click chord images
Transpose chords:
Tuning:
Cool service:
View: Size:
A  A  A
Rating:
Layout:
  • Currently 2.5/5 Stars.
  • 1
  • 2
  • 3
  • 4
  • 5
 
Accuracy:
  • Currently 3.1/5 Stars.
  • 1
  • 2
  • 3
  • 4
  • 5
 
click stars to rate
Chordie recommends:
Learn how to play guitar at JamPlay.com
Songbook:
Login to add this song to your songbook
Support the artist
Preview/buy this song
MSN Music
Why this non-profit ad?

 
login to add comments/video/corrections