Chordie logo

Two Days In February   Goo Goo Dolls



I play this song similar to the other tabs entered here, but just a couple small 
that I use that I think sounds better.  Try it out for yourself and decide.


Capo:  2nd Fret
Standard Tuning
Tabs in reference to Capo


Intro:
E --0-0-0-0-0--0-0-0-0-0--0-0-0-0-0--0-0-0-|
B --0-0-0-0-0--0-0-0-0-0--0-0-0-0-0--0-0-0-|
G --1-1-1-1p0--6-6-6-6-6--4-4-4-4-4--6-6-6-|
D --2-2-2-2p0--6-6-6-6-6--6-6-6-6-6--7-7-7-|       2x
A --2-2-2-2p0--4-4-4-4-4--6-6-6-6-6--7-7-7-|
E --0-0-0-0-0--0-0-0-0-0--0-0-0-0-0--5-5-5-|


E --0-0-0-0-0--0-0-0-0--0-0-0-----|
B --0-0-0-0-0--0-0-0-0--0-0-0-----|
G --1-1-1-1p0--4-4-4-4--2-2-2-----|
D --2-2-2-2p0--4-4-4-4--2-4-2-----|    1x
A --2-2-2-2p0--2-2-2-2--0-4-0-----|
E --0-0-0-0-0--0-0-0-0--0-0-0-----|


Verse:
"I hung your picture on the wall..."
E --0-0-0-0-0--0-0-0-0-0--0-0-0-0-0--0-0-0-|
B --0-0-0-0-0--0-0-0-0-0--0-0-0-0-0--0-0-0-|
G --1-1-1-1p0--6-6-6-6-6--4-4-4-4-4--6-6-6-|
D --2-2-2-2p0--6-6-6-6-6--6-6-6-6-6--7-7-7-|   3x
A --2-2-2-2p0--4-4-4-4-4--6-6-6-6-6--7-7-7-|
E --0-0-0-0-0--0-0-0-0-0--0-0-0-0-0--5-5-5-|


"Everything I feel"
E --0-0-0-0-0--0-0-0-0--0-0-0-----|
B --0-0-0-0-0--0-0-0-0--0-0-0-----|
G --1-1-1-1p0--4-4-4-4--2-2-2-----|
D --2-2-2-2p0--4-4-4-4--2-4-2-----|    1x
A --2-2-2-2p0--2-2-2-2--0-4-0-----|
E --0-0-0-0-0--0-0-0-0--0-0-0-----|


Chorus:
"Everything's wrong.... "                      maybe throw in some of these
E -0-0-0-0-0--0-0-0-0-0--0-0-0-0-0             0-0-0-0-0-0-0-0-0-|
B -0-0-0-0-0--0-0-0-0-0--0-0-0-0-0             0-0-0-0-0-0-0-0-0-|
G -4-4-4-4-4--2-2-2-2-2--1-1-1-1-1             0h1-1-1-0-0h1-1-1-|
D -4-4-4-4-4--2-2-2-2-2--2-2-2-2-2      2x     0h2-2-2-0-0h2-2-2-|
A -2-2-2-2-2--0-0-0-0-0--2-2-2-2-2             0h2-2-2-0-0h2-2-2-|
E -0-0-0-0-0--0-0-0-0-0--0-0-0-0-0             0-0-0-0-0-0-0-0-0-|


Bridge:
E --0-0-0-0-0--0-0-0-0-0--0-0-0-0-0-0-0-0-0-|
B --0-0-0-0-0--0-0-0-0-0--0-0-0-0-0-0-0-0-0-|
G --3-3-3-3-3--6-6-6-6-6--1-1-1-1-1-1-1-1-1-|
D --4-4-4-4-4--7-7-7-7-7--2-2-2-2-2-2-2-2-2-|
A --4-4-4-4-4--7-7-7-7-7--2-2-2-2-2-2-2-2-2-|
E --2-2-2-2-2--5-5-5-5-5--0-0-0-0-0-0-0-0-0-|

E --0-0-0-0-0--0-0-0-0-0------0-0-0------0-0-0------0-0-0------0-0-0-|
B --0-0-0-0-0--0-0-0-0-0------0-0-0------0-0-0------0-0-0------0-0-0-|
G --3-3-3-3-3--6-6-6-6-6------8-8-8------6-6-6------4-4-4------3-3-3-|
D --4-4-4-4-4--7-7-7-7-7------9-9-9------7-7-7------6-6-6------4-4-4-|
A --4-4-4-4-4--7-7-7-7-7----9---9------7---7------6---6------4---4---|
E --2-2-2-2-2--5-5-5-5-5--7-----7----5-----5----4-----4----2-----2---|

E --0-0-0-0-0-0-0-0-0-0-|
B --0-0-0-0-0-0-0-0-0-0-|

G --1-1-1-1-1-0-0h1-1-1-|
D --2-2-2-2-2-0-0h2-2-2-|
A --2-2-2-2-2-0-0h2-2-2-|
E --0-0-0-0-0-0-0-0-0-0-|



Important: The song above is NOT stored on the Chordie server. The original song is hosted at www.guitaretab.com. Chordie works as a search engine and provides on-the-fly formatting. Chordie does not index songs against artists/composers will. To remove this song please click here.

This song is displayed as text-only. Transposing and tuning is only available for chordpro-songs.

Login - add to songbook

Rating click stars to rate

Layout
Accuracy

SHARE PAGE  



You need to log in to post comments