Guitar Tabs, Chords and Lyrics


Well Be Here When Youre Gone   Goo Goo Dolls



Goo Goo Dolls - We'll be here (When your gone)


There are a lot of Guitars in this song(at least 3)so ive tried to tab all of 
Plays Guitar 1). I don't know if this is 100% right but ive played it with the music and it fits 
perfectly. Work out the strum pattern on your own. Have Fun!


All Guitars: standard tuning

Intro:


Guitar 1 (Acoustic)


e|--------------------------------------------------------------------|
B|--------------------------------------------------------------------|
G|------------------7-7-7-7-7-7-7-7-------------------5-5-5-5-5-5-5-5-|
D|-2-2-2-2-2-2-2-2--7-7-7-7-7-7-7-7--5-5-5-5-5-5-5-5--5-5-5-5-5-5-5-5-|
A|-2-2-2-2-2-2-2-2--5-5-5-5-5-5-5-5--7-7-7-7-7-7-7-7--3-3-3-3-3-3-3-3-| X2
E|-0-0-0-0-0-0-0-0-------------------5-5-5-5-5-5-5-5------------------|

Guitar 2 (Distortion)


e|---------------------------------------------------------------|
B|---------------------------------------------------------------|
G|------------------7-7--7--7-------------------------5-5--5--5--|
D|-2-2--2--2--------7-7--7--7--------5-5--5--5--------5-5--5--5--|
A|-2-2--2--2--------5-5--5--5--------7-7--7--7--------3-3--3--5--| X2
E|-0-0--0--0-------------------------5-5--5--5-------------------|


Guitar 3 (Distortion)


e|-----------------|
B|-----------------|
G|-----------------|
D|---5-7-5-7-5-7-5-| X8
A|-7---------------|
E|-----------------|



Verse:

Guitar 1


e|--------------------------------------------------------------------|
B|--------------------------------------------------------------------|
G|------------------7-7-7-7-7-7-7-7-------------------5-5-5-5-5-5-5-5-|
D|-2-2-2-2-2-2-2-2--7-7-7-7-7-7-7-7--5-5-5-5-5-5-5-5--5-5-5-5-5-5-5-5-| X4
A|-2-2-2-2-2-2-2-2--5-5-5-5-5-5-5-5--7-7-7-7-7-7-7-7--3-3-3-3-3-3-3-3-|
E|-0-0-0-0-0-0-0-0-------------------5-5-5-5-5-5-5-5------------------|


Chorus:


Guitar 1


e|--------------------------------------------------------------------|
B|--------------------------------------------------------------------|
G|------------------7-7-7-7-7-7-7-7-------------------5-5-5-5-5-5-5-5-|
D|-5-5-5-5-5-5-5-5--7-7-7-7-7-7-7-7--5-5-5-5-5-5-5-5--5-5-5-5-5-5-5-5-| X2
A|-5-5-5-5-5-5-5-5--5-5-5-5-5-5-5-5--7-7-7-7-7-7-7-7--3-3-3-3-3-3-3-3-|
E|-3-3-3-3-3-3-3-3-------------------5-5-5-5-5-5-5-5------------------|

*                                       *
e|--------------------------------------|
B|--------------------------------------|
G|------------------7-7-7-7-7-7-7-7--5--|
D|-2-2-2-2-2-2-2-2--7-7-7-7-7-7-7-7--5--|
A|-2-2-2-2-2-2-2-2--5-5-5-5-5-5-5-5--3--|
E|-0-0-0-0-0-0-0-0----------------------|(*on final chorus play twice)


Guitar 2


e|--------------------------------------------------------------------|
B|--------------------------------------------------------------------|
G|-12-----12----12---7-----7----7---14-----14----14---5-----5-----5---|
D|-12-12----12----12-7-7-----7----7-14-14----14----14-5-5-----5-----5-| X2
A|-10---10----10-----5---5-----5----12---12----12-----3---3-----3-----|
E|--------------------------------------------------------------------|

e|-------------------------------------|
B|-------------------------------------|
G|-------------------7-----7----7---5--|
D|-14-----14----14---7-7-----7----7-5--|
A|-14-14----14----14-5---5-----5----3--|
E|-12---12----12-----------------------|


Break:

Guitar 3


e|---------------------|
B|---------------------|
G|-9--9-9-x--9-9--9--9-|
D|-9--9-9-x--9-9--9--9-| x4
A|-7--7-7-x--7-7--7--7-|
E|---------------------|

Solo:


Guitar 2

e|-5h7-7-7-77-7-10--12-|
B|---------------------|
G|---------------------|
D|---------------------| X3
A|---------------------|
E|---------------------|


e|-12-1212-1212-15-17--|
B|---------------------|
G|---------------------|
D|---------------------|
A|---------------------|
E|---------------------|

Guitar 3


e|---------------------|
B|---------------------|
G|-9--9-9-x--9-9--9--9-|
D|-9--9-9-x--9-9--9--9-| x4
A|-7--7-7-x--7-7--7--7-|
E|---------------------|


Order:


Intro

Verse

Chorus

Verse

Chorus

Break

Solo

Intro

Chorus*



Important: The song above is NOT stored on the Chordie server. The original song is hosted at www.guitaretab.com. Chordie works as a search engine and provides on-the-fly formatting. Chordie does not index songs against artists'/composers' will. To remove this song please click here.

This song is displayed as text-only. Transposing and tuning is only available for chordpro-songs.

Login - add to songbook

Rating click stars to rate

Layout
Accuracy

SHARE PAGE  




You need to log in to post comments