Chordie logo

Biggest Joke   Goober Patrol



Intro:
e-3-3-3-3-3-1-1-1-5-5-5-5-5-5-|
b-3-3-3-3-3-1-1-1-5-5-5-5-5-5-|
g-4-4-4-4-4-2-2-2-5-5-5-5-5-5-|
d-5-5-5-5-5-3-3-3-7-7-7-7-7-7-|
a-5-5-5-5-5-3-3-3-7-7-7-7-7-7-|
E-3-3-3-3-0-1-1-0-5-5-0-5-5-5-| x2

Pre-Verse:

Guitar 1:
e-3-3-3-3-3-1-1-1-5-5-5-5-5-5-|
b-3-3-3-3-3-1-1-1-5-5-5-5-5-5-|
g-4-4-4-4-4-2-2-2-5-5-5-5-5-5-|
d-5-5-5-5-5-3-3-3-7-7-7-7-7-7-|
a-5-5-5-5-5-3-3-3-7-7-7-7-7-7-|
E-3-3-3-3-0-1-1-0-5-5-0-5-5-5-| x4

Guitar 2:
e----------------------------|
b-----------------0----------|
g-----------------0----------|
d-----------------7----------|
a-----------------7----------|
E-3^1/2---1-------5----------| x4

Verse:
[Part 1]----------------I [Part 2]-------------------------------------------|I
e----------------------------------------------------------------------------|
b----------------------------------------------------------------------------|
g--------------------------5-5-5---------------------------------------------|
d---5--5--3--3--7--7--7--7-5-5-5-7-7-7-7-5-5-5-3-3-3-3-7-7-3-3-5-5-5-5-5-5---|
a---5--5--3--3--7--7--7--7-3-3-3-7-7-7-7-5-5-5-3-3-3-3-7-7-3-3-5-5-5-5-5-5---|
E---3--3--1--1--5--5--5--5-------5-5-5-5-3-3-3-1-1-1-1-5-5-1-1-3-3-3-3-3-3---| x2

Pre-Verse

Verse

Solo (Over Part 1 of Verse (x4))
e------------------------------------------------------------|
b-----------------12--------------------12--12--12--12-------|
g-----------12-14-14^-12----------12----14^-14^-14^-14-12----|
d-----12-14--------------14-12-14----14-------------------14-|
a-/12--------------------------------------------------------|
E------------------------------------------------------------|

e------------------------------------------------|
b------------------------------12--12--12--12----|
g-5-3--------------------3-5-3-14^-14^-14^-14----|
d-----5-3------------3-5----------------------14-|
a----------5-3---3-5-----------------------------|
E--------------5---------------------------------| x1

Bridge:
p.m.-----------------------------------------------------------------------|
e--------------------------------------------------------------------------|
b--------------------------------------------------------------------------|
g-4-----------------------------4-4-4-4-4-4-4-4----------------------------|
d-4-4-4-2-2-2-2-2-2-2-2-4-4-2-2-4-4-4-4-4-4-4-4-4-4-4-4-4-4-4-4-4-4-4-4-4--|
a-2-4-4-2-2-2-2-2-2-2-2-4-4-2-2-2-2-2-2-2-2-2-2-4-4-4-4-4-4-4-4-4-4-4-4-4--|
E---2-2-0-0-0-0-0-0-0-0-2-2-0-0-----------------2-2-2-2-2-2-2-2-2-2-2-2-2--|

----------------------------------|I
e---------------------------------|
b---------------------------------|
g---------------------------------|
d-4/9-9-9-9-9-9-9-9-9-9-9-9-9-9---|
a-4/9-9-9-9-9-9-9-9-9-9-9-9-9-9---|
E-2/7-7-7-7-7-7-7-7-7-7-7-7-7-7---| x1


Verse

Pre-Verse x1




Important: The song above is NOT stored on the Chordie server. The original song is hosted at www.guitaretab.com. Chordie works as a search engine and provides on-the-fly formatting. Chordie does not index songs against artists/composers will. To remove this song please click here.

This song is displayed as text-only. Transposing and tuning is only available for chordpro-songs.

Login - add to songbook

Rating click stars to rate

Layout
Accuracy

SHARE PAGE  



You need to log in to post comments