Chordie logo


Let Me Go   Good Charlotte



Let Me Go - Good Charlotte - Good Charlotte - Track 12
Standard Tuning
The Intro is only on the bass

Guitar 1 (intro riff/verse)
E------------------------------------------------------
B------------------------------------------------------
G-5-55----------------5-55-----------------------------
D-5-55-3-33-77-5--555-5-55-3-33-77-5-555---------------
A-3-33-3-33-77-5--555-3-33-3-33-77-5-555---------------
E------1-11-55-3--333------1-11-55-3-333---------------

Guitar 2 (only played between choruses, not during)
E----------------------------------------------------------
B-8--8-8-13--13-13--8-8--13---8--8-8-13--13-13--8-8--13----
G-x--x-x-x---x--x---x-x--x----x--x-x-x---x--x---x-x--x-----
D-5--5-5-10--10-10--5-5--10---5--5-5-10--10-10--5-5--10----
A----------------------------------------------------------
E----------------------------------------------------------

Verse Riff
E------------------------------------
B------------------------------------
G--888888888888888888888888885-------
D------------------------------------
A------------------------------------
E------------------------------------

Chorus
E-------------------------------------------
B-------------------------------------------
G-5-55----------------5-55------------------
D-5-55-3-33-77-5--555-5-55-3-33-77-5-555----
A-3-33-3-33-77-5--555-3-33-3-33-77-5-555----
E------1-11-55-3--333------1-11-55-3-333---- 3x

Ending of Chorus
E---------------------------------
B---------------------------------
G------------------5--------------
D--33333333555555555--------------
A--33333333555555553--------------
E--1111111133333333---------------
"but i'm so young"

Bridge
E--------------------------------------------
B--------------------------------------------
G-----5-----5-----5-----5-----5-----5--------
D--5-----5-----5-----5-----5-----5-----------
A--------------------------------------------
E--------------------------------------------

Then just play the opening riff a bunch during the "nananana"'s
The chorus is played after that, 

Ending Chord
E----------
B----------
G--4-------
D--5-------
A--2-------
E----------
I'm 100% sure this chord is WRONG,


Important: The song above is NOT stored on the Chordie server. The original song is hosted at www.guitaretab.com. Chordie works as a search engine and provides on-the-fly formatting. Chordie does not index songs against artists/composers will. To remove this song please click here.

This song is displayed as text-only. Transposing and tuning is only available for chordpro-songs.

Login - add to songbook

Rating click stars to rate

Layout
Accuracy

SHARE PAGE  




You need to log in to post comments