"yes"; ?> A New Beginning by Good Charlotte - guitar chords, guitar tabs and lyrics - chordie

A New Beginning

Good Charlotte

 DmF
|------17-------------13---------|----------17-19--20-19-17----|
|--18------18-----15------15-----|-----18-------------------18-|
|--19-------------------------14-|--17-------------------------|
|-------------19--15-------------|-----------------15----------|
|--------------------------------|--15-------------------------|
|--------------------------------|-----------------------------|

Bells arranged for guitar ^
Fret 18

(*) Gtr 2.
|--------------------------------|-----------------------------|
|--------------------------------|-----------------------------|
|--------------------------------|-----------------------------|
|-----Play nothing---------------|-----------------------------|
|--------------------------------|------5----------------------|
|--------------------------------|-----------------------------|

Cello arranged for guitar The 2nd guitar plays this when
Guitar 1 plays fret 18, as you can see
Play Fret 5 at the exact same time as 18.

Gtr 1.
 G7Bb
|--------------10-------10-13----|-10-----10-13--13-----18--20-----|
|------12---12------12-----------|-----11------------15------------|
|--12-----12---12----------------|-10------------15-----19---------|
|--12----------------------------|---------------------------------|
|--------------------------------|---------------------------------|
|--------------------------------|---------------------------------|

Bells arranged for guitar

(*) Gtr 2.
|--------------------------------|---------------------------------|
|--------------4-----------------|----------------3----------------|
|--------------------------------|--3------------------------------|
|--5-----------------------------|---------------------------------|
|--------------------------------|---------------------------------|
|--------------------------------|---------------------------------|

Cello arranged for guitar The 2nd guitar plays this
While guitar 1 plays the top section

Section B

It Gets A Little Faster = 106

Gtr 1.
..........Pm.........................................................
|-22-17---------------------------|-----17--19--20--19--17----------|
|--------19-----------------------|--18---------------------18------|
|-----------19--------------------|---------------------------------|
|--------------19--16-------------|---------------------------------|
|----------------------17---------|---------------------------------|
|---------------------------------|---------------------------------|


Gtr 1.
Dont Pm
|------------------------------------|
|-----12-------12--15-------15---18--|
|-12------12-----------16------------|
|-12---------------------------------|
|---------14-------------------------|
|------------------15-------14-------|


Gtr 1.
Pm...................................
|------------------18------18--20---|
|--------------18------18-----------|
|----------19-----------------------|
|------20---------------------------|
|-----------------------------------|
|-----------------------------------|


(*)Grt 2.
|------------------18------18--20---|
|--15------15--18------18-----------|
|------15---------------------------|
|-----------------------------------|
|-----------------------------------|
|-----------------------------------|

Play This When Grt 1. Plays the above
Play at exact same time.

Gtr 2.
|----------------------------------------------|
|----------------------------------------------|
|--2~---------2~---------4~--------3~----------|
|--4~---------3~---------5~--------3~----------|
|----------------------------------1~----------|
|--0~---------3~---------5~--------------------|

Let the chords ring out

Chords use in the rest of the song:

 D5/ABb5G5A5B/D#F5/C
|-------|------|------|------|------|------|
|-------|------|------|------|------|------|
|-------|------|------|------|------|------|
|--7----|---8--|---5--|---7--|---9--|--10--|
|--5----|---8--|---5--|---7--|---6--|---8--|
|--5----|---6--|---3--|---5--|---x--|---8--|


A5 Bb Bb5 D5/A Dm F F5/C G5 G7
variations - click chord images
Transpose chords:
Tuning:
Cool service:
View: Size:
A  A  A
Rating:
Layout:
  • Currently 3.8/5 Stars.
  • 1
  • 2
  • 3
  • 4
  • 5
 
Accuracy:
  • Currently 3/5 Stars.
  • 1
  • 2
  • 3
  • 4
  • 5
 
click stars to rate
Chordie recommends:
Check out these online guitar lessons
Songbook:
Login to add this song to your songbook
Support the artist
Preview/buy this song
MSN Music
Why this non-profit ad?

 
login to add comments/video/corrections