Guitar Tabs, Chords and Lyrics


Boys And Girls   Good Charlotte



Song- Boys and girls
Artist- Good Charlotte

Tabbed by Matt Salaiz
matt.602@hotmail.com


#cutline#
6 | --------0- |    
5 | --------0- | 
4 | ---------- |  
3 | ---7------ | x4 
2 | --7---9--- |     
1 | -5---7---- |    


#cutline#
6 | --------0- | .  | ----------- | .  | ------------------ | 
5 | --------0- | .  | ----------- | .  | ------------------ | 
4 | ---------- | .  | ----------- | .  | ------------------ | 
3 | ---7------ |x4 | -777-99999- |x4 | -7777777777777777- | 
2 | --7---9--- | .  | -777-99999- | .  | -7777777777777777- | 
1 | -5---7---- | .  | -555-77777- | .  | -5555555555555555- | 
educated............ | .. PM .. | .... | PM then fade to | ..
...................................... | . normal strum .| ..


#cutline#
6 | --------------------------------- |
5 | --------------------------------- |
4 | --------------------------------- |
3 | -9999999-9999999-777777777777777- | x2
2 | -7777777-6666666-777777777777777- |
1 | -----------------555555555555555- |
girls don't like boys...


#cutline#
6 | --------0- | . | ----------- | . | ------------------ | 
5 | --------0- | . | ----------- | . | ------------------ | 
4 | ---------- | . | ----------- | . | ------------------ | 
3 | ---7------ |x4 | -777-99999- |x4 | -7777777777777777- | 
2 | --7---9--- | . | -777-99999- | . | -7777777777777777- | 
1 | -5---7---- | . | -555-77777- | . | -5555555555555555- | 
paper............... | .. PM .. | .... | PM then fade to | ..
...................................... | . normal strum .| ..


#cutline#
6 | --------------------------------- |
5 | --------------------------------- |
4 | --------------------------------- |
3 | -9999999-9999999-777777777777777- | x2
2 | -7777777-6666666-777777777777777- |
1 | -----------------555555555555555- |
    girls don't like boys...

6 | -------------------------------------------------------------------- |
5 | -------------------------------------------------------------------- |
4 | -------------------------------------------------------------------- |
3 | -22222222-99999999-7777777777777777-9999999-9999999-777777777777777- |
2 | -22222222-66666666-7777777777777777-7777777-6666666-777777777777777- |
1 | -00000000----------5555555555555555-----------------555555555555555- |
    and these girls like these boys...


#cutline#
6 | -------------------------------------- P- |
5 | -------------------------------------- A- |
4 | -------------------------------------- U- |
3 | -9\11-7-77-11/9-7-77--9\11-7-77-11/9-7-S- |
2 | -7\9--5-55--9/7-5-55--7\9--5-55--9/7-5-E- | 
1 | -----------------------------------------  |
    lets go!

6 | ----------------- P---------------------------- |
5 | ----------------- A---------------------------- |
4 | ----------------- U---------------------------- |
3 | -9\11-7-77-11/9-7-S-9\11-7-77-9999999999999999- |
2 | -7\9--5-55--9/7-5-E-7\9--5-55-7777777777777777- |
1 | ------------------- --------------------------- |


#cutline#
6 | ------------------------------------------------------------------- |
5 | ------------------------------------------------------------------- |
4 | ------------------------------------------------------------------- |
3 | -9-9-9-9-9-9-9-9-9999999999999999-9-9-9-9-9-9-9-9-9999999999999999- |
2 | -7-7-7-7-6-6-6-6-9999999999999999-7-7-7-7-6-6-6-6-9999999999999999- |
1 | -----------------7777777777777777-----------------7777777777777777- |
... |. Mute between.| ............... |      Mute between     |...................
... | ... notes ... | ............... | .. notes .. |....................

6 | -------------------------------------------------------------------- |
5 | -------------------------------------------------------------------- |
4 | -------------------------------------------------------------------- |
3 | -22222222-99999999-7777777777777777-9999999-9999999-777777777777777- |
2 | -22222222-66666666-7777777777777777-7777777-6666666-777777777777777- |
1 | -00000000----------5555555555555555-----------------555555555555555- |
    and these girls like these boys...


#cutline#
6 | --------0- |    
5 | --------0- | 
4 | ---------- |  
3 | ---7------ | x18 (Last 4 fade)
2 | --7---9--- |     
1 | -5---7---- |    




Important: The song above is NOT stored on the Chordie server. The original song is hosted at www.guitaretab.com. Chordie works as a search engine and provides on-the-fly formatting. Chordie does not index songs against artists'/composers' will. To remove this song please click here.

This song is displayed as text-only. Transposing and tuning is only available for chordpro-songs.

Login - add to songbook

Rating click stars to rate

Layout
Accuracy

SHARE PAGE  




You need to log in to post comments