Guitar Tabs, Chords and Lyrics


Carcinogenic Crush   Good Girls Dont Say No



Carcinogenic Crush
Tuning - DADGBe

Intro pt. I - guitar one
e|----|
B|----|
G|-9~-|
D|-7~-|
A|-9~-| volume swell
D|-0~-|

Intro pt. II - guitar one and two
e|-------------------------------------------------------------|
B|-------------------------------------------------------------|
G|-----------------------4----------5----------7----9----7-5-4-|
D|-2-22222222-2-22222222-x-22222222-x-22222222-x----x----x-x-x-|
A|-2-22222222-2-22222222-2-22222222-3-22222222-5-55-7-77-5-3-2-|
D|-2-22222222-2-22222222---22222222---22222222-----------------|
     ********   ********   ********   ********   **   **

Verse - guitar one
e|-------------------------------------|
B|-------------------------------------|
G|---5-7-4-9-5-7-4-9-5-7-4-9-5-7-4-4-7-|
D|-2-x-x-x-x-x-x-x-x-x-x-x-x-x-x-x-x-x-|
A|-2-3-5-2-7-3-5-2-7-3-5-2-7-3-5-2-2-5-|
D|-2-----------------------------------|

Verse - guitar two
e|-------------------------------------|
B|-------------------------------------|
G|---5---4---5---4---5---4---5---4-4-7-|
D|-2-5-5-4-2-5-5-4-2-5-5-4-2-5-5-4-x-x-|
A|-2-3-5-2-2-3-5-2-2-3-5-2-2-3-5-2-2-5-|
D|-2---5---2---5---2---5---2---5-------|

Chorus - guitar one x4
e|----------|----------------------------|
B|----------|----------------------------|
G|---5------|-9--12\11/12\11/12\11/12\11-|
D|-2-5-xxxx-|-x---x\-x/-x\-x/-x\-x/-x\-x-|
A|-2-3-xxxx-|-7--10\-9/10\-9/10\-9/10\-9-|
D|-2---xxxx-|----------------------------|

Chorus - guitar two x4
e|----------|--------------------|
B|----------|--------------------|
G|---5------|--------------------|
D|-2-5-xxxx-|-2--5\4/5\4/5\4/5\4-|
A|-2-3-xxxx-|-2--5\4/5\4/5\4/5\4-|
D|-2---xxxx-|-2--5\4/5\4/5\4/5\4-|

Verse - guitar one
e|-------------------------------------|
B|-------------------------------------|
G|---5-7-4-9-5-7-4-9-5-7-4-9-5-7-4-4-7-|
D|-2-x-x-x-x-x-x-x-x-x-x-x-x-x-x-x-x-x-|
A|-2-3-5-2-7-3-5-2-7-3-5-2-7-3-5-2-2-5-|
D|-2-----------------------------------|

Verse - guitar two
e|-------------------------------------|
B|-------------------------------------|
G|---5---4---5---4---5---4---5---4-4-7-|
D|-2-5-5-4-2-5-5-4-2-5-5-4-2-5-5-4-x-x-|
A|-2-3-5-2-2-3-5-2-2-3-5-2-2-3-5-2-2-5-|
D|-2---5---2---5---2---5---2---5-------|


Chorus - guitar one and two x4
e|----------|
B|----------|
G|---5------|
D|-2-5-xxxx-|
A|-2-3-xxxx-|
D|-2---xxxx-|

Bridge - guitar one and two
e|-------------------------------------------------------------|
B|-------------------------------------------------------------|
G|-----------------------4----------5----------7----9----7-5-4-|
D|-2-22222222-2-22222222-x-22222222-x-22222222-x----x----x-x-x-|
A|-2-22222222-2-22222222-2-22222222-3-22222222-5-55-7-77-5-3-2-|
D|-2-22222222-2-22222222---22222222---22222222-----------------|
     ********   ********   ********   ********   **   **

Solo - guitar one
e|---------------------------------------------12h15p12-----------------------------12h14h15-12---|
B|------------------------------------------------------12h15p12-----------12h14h15----------15~^-|
G|-9-17-14-12--9-17-14-12--9-17-14-12--9-17-14-------------------14^p12h14^-----------------------|
D|-x--x--x--x--x--x--x--x--x--x--x--x--x--x--x----------------------------------------------------|
A|-7-15-12-10--7-15-12-10--7-15-12-10--7-15-12----------------------------------------------------|
D|------------------------------------------------------------------------------------------------|

Solo - guitar two x4
e|---------|
B|---------|
G|---5---4-|
D|-2-5-7-4-|
A|-2-3-7-2-|
D|-2---7---|

Chorus - guitar one and two x4
e|----------|
B|----------|
G|---5------|
D|-2-5-xxxx-|
A|-2-3-xxxx-|
D|-2---xxxx-|

Outro - guitar one and two
e|----------------------------------------------------------------|
B|----------------------------------------------------------------|
G|-----------------------4----------5----------7----9----7-5-4----|
D|-2-22222222-2-22222222-x-22222222-x-22222222-x----x----x-x-x-2~-|
A|-2-22222222-2-22222222-2-22222222-3-22222222-5-55-7-77-5-3-2-2~-|
D|-2-22222222-2-22222222---22222222---22222222-----------------2~-|
     ********   ********   ********   ********   **   **

http://www.goodgirlsdontsayno.tk


Important: The song above is NOT stored on the Chordie server. The original song is hosted at www.guitaretab.com. Chordie works as a search engine and provides on-the-fly formatting. Chordie does not index songs against artists'/composers' will. To remove this song please click here.

This song is displayed as text-only. Transposing and tuning is only available for chordpro-songs.

Login - add to songbook

Rating click stars to rate

Layout
Accuracy

SHARE PAGE  




You need to log in to post comments