Chordie logo

One For The Braves   Good Riddance



Good Riddance - One For The Braves

Played in E key

intro x2 `=natural harmonic
E----------------------------------|-first time---|-second time------
B----------------------------------|--------------|------------------
G-----------------------7777--9999-|--------------|------------------ 
D-777---666---444444----7777--9999-|-6/777-6/777--|-6/777777---`-`-`-
A-777---666---444444----5555--7777-|-6/777-6/777--|-6/777777---5-5-5-    
E-555---444---222222---------------|-4/555-4/555--|-4/555555---------

on second time the second guitar comes in
intro guitar 2*=play 5x 
E-------------------------
B--*--*-------------------
G-14-13-14-13-11-9--11----
D-------------------------
A-12-11-12-11-9--7--9-----
E-------------------------

Verse1 x2 %=play 17-20x       on second time finish with this
E----------------------------|----------------------
B----------------------------|----------------------
G-%----------------77777777--|--14-14-14-14-14-16\--
D-7--66--44444444--77777777--|----------------------
A-7--66--44444444--55555555--|--12-12-12-12-12-14\--
E-5--44--22222222------------|----------------------

chorus x2 
E----------------------------------|-first time---|-second time------
B----------------------------------|--------------|------------------
G-----------------------7777--9999-|--------------|------------------ 
D-777---666---444444----7777--9999-|-6/777-6/777--|-6/777777---```-`-
A-777---666---444444----5555--7777-|-6/777-6/777--|-6/777777---555-5-    
E-555---444---222222---------------|-4/555-4/555--|-4/555555---------

verse2 x2 %=play 17-20x 	      on second time finish with this
E-------------------------------|----------------------
B-------------------------------|----------------------
G-%----------------77777777-----|--14-14-14-14-14-16\--
D-7--66--44444444--77777777-----|----------------------
A-7--66--44444444--55555555-----|--12-12-12-12-12-14\--
E-5--44--22222222---------------|----------------------

verse2 guitar 2
E--------------------------------------------
B--------------------------------------------
G-------------------14-13-11-13--------------
D--------------------------------------------
A-------------------12-11-9--11--------------
E--------------------------------------------

chorus x2 
E----------------------------------|-first time---|-second time--------------------
B----------------------------------|--------------|--------------------------------
G-----------------------7777--9999-|--------------|-------------------14-----------
D-777---666---444444----7777--9999-|-6/777-6/777--|-6/777777---```-`-----//slide//-
A-777---666---444444----5555--7777-|-6/777-6/777--|-6/777777---555-5--12-----------
E-555---444---222222---------------|-4/555-4/555--|-4/555555-----------------------

bridge x2 *=play 5-6x
E----------------------------------|-first time-|-second time-------
B----------------------------------|------------|------------*--*---
G---------------77777777-----------|-99999999---|-999999999/11/13---
D-7-6-44444444--77777777--77777777-|-99999999---|-999999999---------
A-7-6-44444444--55555555--77777777-|-77777777---|-777777777/9 /11---
E-5-4-22222222------------55555555-|------------|-------------------

chorus leading into outro part 1
E------------------------------------------------
B------------------------------------------------
G----------------------7777--9999---------------
D-777---666---444444---7777--9999--6/777-6/777--
A-777---666---444444---5555--7777--6/777-6/777--    
E-555---444---222222---------------4/555-4/555--

part 2
E------------------------------------
B------------------------------------
G----------------------7777--9999----
D-777---666---4--------7777--9999----
A-777---666---4--------5555--7777----    
E-555---444---2----------------------

part 3 *=play 5-6x    #=play 2x 

E---play x2---|on 3rd time-|---------
B--*-----#----|-*-----#----|---------

G-14-13-14-13-|14-16-14-13-|--7-6-4--
D-------------|------------|---------
A-12-11-12-11-|12-14-12-11-|--5-4-2--
E-------------|------------|---------


done and done.

Tabbed by Ben Milne nov-25-05
updated on feb-6-06














Important: The song above is NOT stored on the Chordie server. The original song is hosted at www.guitaretab.com. Chordie works as a search engine and provides on-the-fly formatting. Chordie does not index songs against artists/composers will. To remove this song please click here.

This song is displayed as text-only. Transposing and tuning is only available for chordpro-songs.

Login - add to songbook

Rating click stars to rate

Layout
Accuracy

SHARE PAGE  

You need to log in to post comments