Chordie logo

Bed Em Behead Em   Gorerotted



 Song: Bed 'Em, Behead 'Em
 Band: Gorerotted
Album: Mutilated In Minutes

Transcribed By: Scott Carlin, corrected by Matt from Gorerotted
Email:          the_super_adventures@yahoo.ie

.  - palm mute           /  - slide up to 
\  - slide down to       ~  - vibrato 
h  - hammer on           b  - Bend 
p  - pull off            Suffixes for bend 
t  - tap                 f  - full bend    h - half bend 
^ - pinched harmonic    q  - quarter bend t - tap bend 
*  - see comment         H  - Hold bend    r release bend 
x  - Stuccatto           ~  - vibrato bend 
,  - slight palm mute    () - ghost note, sustained note 
"  - tremolo note        tr - Trill 

Tuning: Down 1 Step ( D G C F A D )
=================================================
  This tab has been corrected by none other than
  Matt from Gorerotted, its now official and 100%
  correct, Thanks Matt. It was a bit messy when
  Matt sent it back to me, so I cleaned it up so
  its easier to read.
=================================================

Riff 1 x6
||--------------------------------||
||--------------------------------||
||--------------------------------||
||--------------------------------||
||--------------------------------||
||-0-0-1-0-2-0-1-0-3-0-4-0-3-0-1h2||
   . .   .   .   .   .   .   .

Riff 2 x2
||-------------------------------------------||
||-------------------------------------------||
||--------9-8--------------9-8h9p8h9p8h9p8h9-||
||------9-----10-9-------9-------------------||
||-7-10-------------7-10---------------------||
||-------------------------------------------||
   "  " " " "  " "  "  " " "

Riff 1 x4
Riff 2 x2
Riff 1 x4

Riff 3 x8
||--------------------------||
||--------------------------||
||--------------------------||
||-----5------------5-------||
||-2---3---5/6--3---3---5/6-||
||-0-0---0-3/4--1-0---0-3/4-||
     .   .        .   .

Riff 1 x5
Riff 2 x2
Riff 1 x4

Riff 4a x4
||------------------------||
||------------------------||
||------------------------||
||------------------------||
||-5-------6--------3-4-3-||
||-7-------6------0-1-2-1-||
                  . . . .

Riff 4b x4
||--------------------------------------------------------||
||--------------------------------------------------------||
||--------------------------------------------------------||
||--------------------------------------------------------||
||-------------------------------------------6------3-4-3-||
||-7t10p7t10p7t10p7t10p7t10p7t10p7t10p7t10p7-6----0-1-2-1-||
                                                  . . . .

Riff 5a x3
||----------------------------------||
||----------------------------------||
||----------------------------------||
||----------------------------------||
||-7---6---5---4--------6-9-----6-9-||
||---8---5---6---5--5-8-----5-8-----||
                    . . . . . . . .

Riff 5b x1
||-------------------------------------||
||-------------------------------------||
||--------------------------------8-11-||
||---------------------------7-10------||
||-7---6---5---4---------6-9-----------||
||---8---5---6---5---5-8---------------||
                     . . . . .  .


Riff 5c x3
||-------------------------------------||
||-------------------------------------||
||-------------------------------------||
||-------------------------------------||
||-7---6---5---4----------6h9------6h9-||
||---8---5---6---5--5-5-8-----5-5-8----||
     .   .   .   .  . . .     . . .

Riff 5d x1
||-------------------------------------||
||-------------------------------------||
||--------------------------------8-11-||
||---------------------------7-10------||
||-7---6---5---4---------6-9-----------||
||---8---5---6---5---5-8---------------||
     .   .   .   .   . . . . .  .

Riff 1 x4
Riff 3 x8

Ending x1
||-------||
||-------||
||-------||
||-------||
||-2--2--||
||-0--0--||
   .  .

END



Important: The song above is NOT stored on the Chordie server. The original song is hosted at www.guitaretab.com. Chordie works as a search engine and provides on-the-fly formatting. Chordie does not index songs against artists/composers will. To remove this song please click here.

This song is displayed as text-only. Transposing and tuning is only available for chordpro-songs.

Login - add to songbook

Rating click stars to rate

Layout
Accuracy

SHARE PAGE  

You need to log in to post comments