Chordie logo


Soulshine Acoustic  Govt Mule

-------------3--3--3--3-----------------------2--2--2--2---------------0--0--|


-------------0--0--0--0-----------------------3--3--3--3---------------0--0--|


---------0---0--0--0--0----2-s-4--4--4-s-2----2--2--2--2---2--4--2--0--1--1--|

--0-h-2------0--0--0--0----0---0--0--0---0----0--0--0--0---------------2--2--|
-------------2--2--2--2------------------------------------------------2--2--|
-------------3--3--3--3------------------------------------------------0--0--|
---0--0----1--1--1--1----3--3--3--3--3--3------|
---0--0----1--1--1--1----0--0--0--0--0--0------|
---0--0----2--2--2--2----0--0--0--0--0--0------|
---2--2----3--3--3--3----0--0--0--0--0--0------|
---2--2----3--3--3--3----2--2--2--2--2--2------|
---0--0----1--1--1--1----3--3--3--3--3--3------|
[G]When you can't [D]find the light          That [C]guides you through a cloudy [G]day
[G]When the stars aren't [D]shining bright    And you [C]feel like you've lost your [G]way
[G]When those candle [D]lights at home         [C]Burn so very [G]far away
[G]Well you got to let your [D]soulshine       J[Em]ust like my daddy u[F]sed to say
Chorus
[F]Used to say [G]soulshine

[G]It's better than [D]sunshine

[D]It's better than [C]moonshine
[C]Damn sure better than [G]rain
[G]Hey now people don't mind
[G]We all feel this [D]way sometimes
[D]You got to let your [Em]soulshine
[F]Shine till the [G]break of day
Verse 2 (chords same as verse 1)

I grew up thinking that I had it made gonna make it on my own
Life can take the strongest man and make him feel so alone
Now and then I feel a cold wind blowing through my aching bones
I just think back to what my daddy says he said boy in this darkness before the cold


Chorus (chords same as chorus 1)

[E]Sometimes a man can [C]feel this emptiness

[C]Like a woman has robbed his mother's [G]very soul
[Bm]A woman too god knows she can [C]feel like this
[F]And when your world seems cold
[F]You got to [D]let your spirit take control

Important: The song above is NOT stored on the Chordie server. The original song is hosted at www.guitaretab.com. Chordie works as a search engine and provides on-the-fly formatting. Chordie does not index songs against artists/composers will. To remove this song please click here.

Text color:
Chord color:
Chord grids: 
Font size:    
Page size: 

Bm C D E Em F G
variations - click chord images

Login - add to songbook

Transpose chords

Tuning

Rating click stars to rate

Layout
Accuracy

SHARE PAGE  




You need to log in to post comments

pepperbox (report)

capo on 3rd fret.