Guitar Tabs, Chords and Lyrics


Arrival At Helion   Graeme Revell



-------------------------------------------------------------------------------
			    ARRIVAL AT HELION - Graeme Revell
-------------------------------------------------------------------------------
Tabbed by: Afx237v7
Email: e.phexxx@gmail.com

Tuning: EADGBe

e|-----------12--11------------12--11------------12--11----------------------|
B|-------13----------------13----------------13------------------------------|
G|---------------------------------------------------------------------------|
D|---------------------------------------------------------------------------|
A|---------------------------------------------------------------------------|
E|---------------------------------------------------------------------------|

e|---------------------------------------------------------------------------|
B|---------------13----------------------------------------------------------|
G|-------13--12------12--15----------10--------------------------------------|
D|---------------------------13--13------11--10------------------------------|
A|---------------------------------------------------------------------------|
E|---------------------------------------------------------------------------|

e|---------------------------------------------------------------------------|
B|---------------13----------------------------------------------------------|
G|-------13--12------12--15--------------------------------------------------|
D|---------------------------13--11------------------------------------------|
A|---------------------------------------------------------------------------|
E|---------------------------------------------------------------------------|




| /  slide up
| \  slide down
| h  hammer-on
| p  pull-off
| ~  vibrato
| +  harmonic
| x  Mute note


Important: The song above is NOT stored on the Chordie server. The original song is hosted at www.guitaretab.com. Chordie works as a search engine and provides on-the-fly formatting. Chordie does not index songs against artists'/composers' will. To remove this song please click here.

This song is displayed as text-only. Transposing and tuning is only available for chordpro-songs.

Login - add to songbook

Rating click stars to rate

Layout
Accuracy

SHARE PAGE  




You need to log in to post comments