Guitar Tabs, Chords and Lyrics


Bitter Tears  Graham Coxon

-------------------------------------------------------------------------------



-------------------------------------------------------------------------------

Let Ring
e|5--5---5----2--------------2---2---2---2----|
B|---7---5--5-3--------------2---2---2---2----|
G|-7-7-7--5--5-3-4-2-0-------------------0----|
D|0------0----0-2------4-----------------0----|
A|-----------------------4-4---4---4-----2----|
E|-----------------------2-2-2-2-2-2-2-2-3----|



riff1
Why no pills today?
Bitter tears
7:00 A.M. and wasting away
Bitter tears
Why no knock on my door?
Bitter tears
What did I come here for?
Bitter tears

How much do you need
Bitter tears
Give me love and see me bleed
Bitter tears
Please dont hurt me tonight
Bitter tears
I've lost the will to fight
Bitter tears
It's our[Bd] intimac[F]y that I[C]'m missing, you [G]see
[Bd]When there's no [F]one around [A]
[Bd]Our intimacy i[F]t's what's[C] missing for me,[G] Aaa[A]h
[A#]Rif[F]f [A]1
If I go then I'll go clean
Bitter tears
Making love inside a dream
Bitter tears
Burn the books of history
Bitter tears
Build a home for you and me
Bitter tears


Solo
e|--------------------------------|
B|----------------7-7-8-7-5-8-----|
G|-7-5------------7-7-7-7-4-7-----|
D|-----9h10p9-5-7-----------------|
A|--------------------------------|
E|--------------------------------|



============================================================================

Important: The song above is NOT stored on the Chordie server. The original song is hosted at www.guitaretab.com. Chordie works as a search engine and provides on-the-fly formatting. Chordie does not index songs against artists'/composers' will. To remove this song please click here.

Text color:
Chord color:
Chord grids: 
Font size:    
Page size: 

A A# Bd C F G
variations - click chord images

Login - add to songbook

Transpose chords

Tuning

Rating click stars to rate

Layout
Accuracy

SHARE PAGE  




You need to log in to post comments