Guitar Tabs, Chords and Lyrics


Dont Let Your Man Know   Graham Coxon



'Don't Let Your Man Know' by Graham Coxon
from the album 'Love Travels at Illegal Speeds' (2006)

Intro:

Play this muted at first and then hit it clean once - time it with the drums
e|---------------------|
B|---------------------|
G|--9--9--9--9--9------|
D|--9--9--9--9--9------|
A|--7--7--7--7--7------|
E|---------------------|

Verse:

Play this a few times
e|--------------------------------------------|
B|--------------------------------------------|
G|--------------------------------------------|
D|--9----9------------------------------------|
A|--7----7--6----6--5----5/9--9--11--9--9--11-|
E|----------4----4--3----3/7--7--7---7--7--7--|

Then the pre chorus, so play this part of the verse riff once
e|--------------------------|
B|--------------------------|
G|--------------------------|
D|--9----9------------------|
A|--7----7--6----6--5----5--|
E|----------4----4--3----3--|

And then this
e|-----------------------------------------------------------------|
B|-----------------------------------------------------------------|
G|-----------------------------------------------------------------|
D|-----------------------------------------------------------------|
A|--2-2-0-0--------2-2-0-0---------2-2-0-0---------2-2-2-2-2-2-2-2-|
E|---------3-3-2-2---------3-3-2-2---------3-3-2-2-----------------|

Chorus:

Play this part twice
e|----------------------------------------------------------|
B|----------------------------------------------------------|
G|--9-9-9-9-9-9-9-------------------------------------7-----|
D|--9-9-9-9-9-9-9-6-6-6-6-6-6-6--5-5-5-5-5-5-5--7--9--7--7--|
A|--7-7-7-7-7-7-7-6-6-6-6-6-6-6--5-5-5-5-5-5-5--7--9--5--7--|
E|----------------4-4-4-4-4-4-4--3-3-3-3-3-3-3--5--7-----5--|

And then this twice - play it palm-muted
e|--------------------------------------------------------------------|
B|--------------------------------------------------------------------|
G|--------------------------------------------------------------------|
D|--5-5-5-5-5-5-5-5-5-5-5-5-5-5-5-5--2-2-2-2-2-2-2-2-2-2-2-2-2-2-2-2--|
A|--5-5-5-5-5-5-5-5-5-5-5-5-5-5-5-5--2-2-2-2-2-2-2-2-2-2-2-2-2-2-2-2--|
E|--3-3-3-3-3-3-3-3-3-3-3-3-3-3-3-3--0-0-0-0-0-0-0-0-0-0-0-0-0-0-0-0--|

Finally this bit
e|--------|
B|--------|
G|--2(b)--
D|--------|
A|--------|
E|--------|

After this, go back to the start and play it all again.


Important: The song above is NOT stored on the Chordie server. The original song is hosted at www.guitaretab.com. Chordie works as a search engine and provides on-the-fly formatting. Chordie does not index songs against artists'/composers' will. To remove this song please click here.

This song is displayed as text-only. Transposing and tuning is only available for chordpro-songs.

Login - add to songbook

Rating click stars to rate

Layout
Accuracy

SHARE PAGE  




You need to log in to post comments