eToCache5 = ""; ?> Gettin Jipped by Grandaddy - guitar chords, guitar tabs and lyrics - chordie

Gettin Jipped

Grandaddy

 ADA
 go home mom and go home to your cop  
 DE
you made us all feel weird you should just stop
 ADA
 as soon as he takes off you appear  
 DE
with your one-year old and half-can of flat beer

::Chorus I::
 DE
 you bought into the thought

that believin' in
 AF#m
 somethin' is a lot of shit
 D
well that's unfortunate
 EAA/Gs
guess you're gettin' jipped   
 DE
 you bought into the lie

that the truth don't
 AF#m
apply to you and never did
 D
well that's unfortunate
 EA
guess you're gettin' jipped

::Solo::
1|-------------------------------------------------------------------------
2|--------------------------------------------9-------7--------------------
3|--------9---------9-------------7------9h11-----7h9----9--7--6--4--6-----
4|--9h11------9h11-----11--9--7--------------------------------------------
5|-------------------------------------------------------------------------
6|-------------------------------------------------------------------------
1|-------------------------------------------------------------------------
2|-------------------------------------------7h9--10---7h9--10--9-7--------
3|-------9--------9-------------8----8/14----------------------------9-7-6-
4|--9h11-----9h11----11--9--7----------------------------------------------
5|-------------------------------------------------------------------------
6|-------------------------------------------------------------------------
1|-------------------------------------------------------------------------|
2|---------------5--------7h9--10---7h9--10--9-7-----9--10-----------------|
3|--6-6-6-(6)p4-----6-----------------------------9------------------------|
4|-------------------------------------------------------------------------|
5|-------------------------------------------------------------------------|
6|-------------------------------------------------------------------------|


::Verse II::
(same as ::Verse I::)

well i got skipoles and i'm on my horse
and you on pills, all weird wearin' gym shorts
and my horse and i are gonna find your man
and let him know he's gotta a fuckin' freak on his hands

::Chorus II::
(same as ::Chorus I:: except...)

...on last "i guess you're gettin jipped", play:

 EA
guess you're gettin jipped
 EA
guess you're gettin jipped
 EA
guess you're gettin jipped
 EF#mDA
guess you're gettin jipped             


A D E F#m
variations - click chord images
Transpose chords:
Tuning:
Cool service:
View: Size:
A  A  A
Rating:
Layout:
  • Currently 3.6/5 Stars.
  • 1
  • 2
  • 3
  • 4
  • 5
 
Accuracy:
  • Currently 2.7/5 Stars.
  • 1
  • 2
  • 3
  • 4
  • 5
 
click stars to rate
Chordie recommends:
Learn how to play guitar at JamPlay.com
Songbook:
Login to add this song to your songbook
Support the artist
Preview/buy this song
MSN Music
Why this non-profit ad?

 
login to add comments/video/corrections