Chordie logo

Fishing Boat Song Acoustic  Grandaddy

-=-=-=-=-=-=-=-=-=-=-=-=-=-=-=-=-=





emal me: lurajoonami[@]gmail[.com]
-=-=-=-=-=-=-=-=-=-=-=-=-=-=-=-=-=


this song really touched me. Just the beggining piano
part is so spacey. I love it, and I loved tabbing it out.
for talkscape. thanks guys.

	-=-=-=-=-=-=-=-=-=-=-=-=-=-=-=-=-=-=-=-=-

Standard Tuning:
E a d g b e
CHORDS:
            [Gm]^   [D]^   [C6]^   [A#]^   [Bm]^   [A]^  [G]^
	e[--3-------------------0--1-----------]
	B[--3---3---1-----------2--0-----------]
	G[--3---2---2---3---4---2--0-----------]
	D[--5---4---0---0---0---2--0-----------]
	A[--5---5---3---1---2------2-----------]
	E[--3----------------------3-----------]

Piano has been transcribed
	-=-=-=-=-=-=-=-=-=-=-=-=-=-=-=-=-=-=-=-=-



    [Gm]^
e[-----------------------------------------------]
B[-----------------------------------------------]
G[-----------------------------------------3-----]
D[-----------------------------------------5-----]
A[-----------------------------------------5-----]
E[--3--------------------------------------------]


from springfield mass to concord town


                              [D]^
e[-----------------------------------------------]
B[----------------------------3------------------]
G[----------------------------2------------------]
D[----------------------------4------------------]
A[----------------------------5------------------]
E[-----------------------------------------------]


I saw those lights go down


    [C6]^                   [A#]^                [Bm]^
e[-----------------------------------------------]
B[--1--------------------------------------------]
G[--2-------------------3----------------4-------]
D[--0-------------------0----------------0-------]
A[--3-------------------1----------------2-------]
E[-----------------------------------------------]


in a gorge in Kansas~ I met my jesus~


                  [A#]^
e[-----------------------------------------------]
B[-----------------------------------------------]
G[----------------3------------------------------]
D[----------------0------------------------------]
A[----------------1------------------------------]
E[-----------------------------------------------]


He layed me down... And he said


(Strum)
[D]if I build[A] you a fishing b[G]oat

would you le[A]ave everyone you kn[D]ow?

[D]if I build[A] you a fishing b[G]oat

(stop strumming)
would you le[A]ave everyone you know?  [A#]



would you be more likey [D]   To kill[C6] more time with [Gm]me?

(lightly strum)
and then a sudden [Bm]gail began to wa[A#]il

(strum)
and set my heart like no other love[D]         [A]        [G]

[A]  like no other love    [D]         [A]         [G]          [A]


[D]       if I build [A]you a fishing bo[G]at      [A]

[D]       if I build [A]you a fishing bo[G]at      [A]

[D]       if I build [A]you a fishing bo[G]at

Would you [A]leave everyone you know?~ [D]

if I build yo[A]u a fishing boat[G]

Would you [A]leave everyone you know?~



[G]from springfield mass. to concord to[A#]wn

                            [D]^  [G]^          [D]^
e[-----------------------------------1-----------]
B[--------------------------3-------------3------]
G[--------------------------2-------------2------]
D[--------------------------4-------------4------]
A[--------------------------5-----2-------5------]
E[------------------------------3------3---------]


I saw my lights go down...