"yes"; ?> BOX OF RAIN by Grateful Dead - guitar chords, guitar tabs and lyrics - chordie

BOX OF RAIN

Grateful Dead

 DAm
 Look out of any window
 EmCG
 Any morning, any evening, any day
 DAm
 Maybe the sun is shining
 EmGA
 Birds are winging, no rain is falling from a heavy sky
 DGAmEmD
 What do you want me to do, to do for you to see you through?
 CDAm
For this is all a dream we dreamed, one afternoon long ago
 DAm
 Walk out of any doorway
 EmCG
 Feel your way, feel your way like the day before
 DAm
 Maybe you'll find direction
 Em
 Around some corner where
 GA
 It's been waiting to meet you
 DG
 What do you want me to do?
 AmEmD
To watch for you while you're sleeeeeeeeping
 AmCGD
Then please don't be surprised when you find me dreaming too.
(Guitar Solo):
---------3-----5/7--3--5-|-----5----9--5h7---8p7--5--------------------------
-------------------------|-------------------------------------10--12--10----
-2--4------2-------------|--2----6-------------------------9-----------------
-------------------------|---------------------------------------------------
-------------------------|---------------------------------------------------
-------------------------|---------------------------------------------------
------7-----------------------------------------
---8----8----10--8------------------------------
-9--------------------9------7--9--11-----------
------------------------------------------------
------------------------------------------------
------------------------------------------------
-----3--------------------------|-----------------------
-----3-----------------3----3---|-------------3h5-------
-----3-------0--2--4-----4------|--2--2--2h4------------
--------------------------------| ----------------------
-0------------------------------|-----------------------
--------------------------------|-----------------------
-----3--------------------------------3-----------------------------------
-----3-----------------------------------------3--------------------------
-----3--0-0--2--4--6----6--7-----2/4------2/4-----4--2----4--6--8---------
--------------------------------------------------------------------------
-0------------------------------------------------------------------------
--------------------------------------------------------------------------

 DAm
 Look into any eyes
 EmCG
 You find by you, you can see clear to another day
 DAmEm
 Maybe been seen before through other eyes
 GA
On other days while going home
 DGAmEmD
 What do you want me to do, to do for you, to see you through?
 CEmDG
It's all a dream we dreamed, one after-noon long a-go
 DAmEm
 Walk into splintered sunlight, inch your way through
 CG
 Dead dreams to another land
 DAmEm
 Maybe you're tired and broken, your tongue is twisted with
 GA
 Words half-spoken and thoughts unclear
 DGAmEmD
 What do you want me to do, to do for you, to see you through?
 AmCGD
box of rain will ease the pain, and love will see you through.
 GAmEm
 Just a box of rain, wind and water
 CAD
Be-lieve it if you need it, if you don't, just pass it on.
 GAmEm
 Sun and shower, wind and rain
 CDEmA
 In and out the window, like a moth before a flame
 DEm
And it's just a box of rain
 GD
I don't know who put it there;
 BmGA
Believe it if you need it, or leave it if you dare.
 DEm
And it's just a box of rain
 GD
Or a ribbon for your hair
 Em
Such a long, long time to be gone
 GD
And a short time to be there.


A Am Bm C D Em G
variations - click chord images
Transpose chords:
Tuning:
Cool service:
View: Size:
A  A  A
Rating:
Layout:
  • Currently 3.4/5 Stars.
  • 1
  • 2
  • 3
  • 4
  • 5
 
Accuracy:
  • Currently 3.3/5 Stars.
  • 1
  • 2
  • 3
  • 4
  • 5
 
click stars to rate
Chordie recommends:
Learn how to play guitar at JamPlay.com
Songbook:
Login to add this song to your songbook
Support the artist
Preview/buy this song
MSN Music
Why this non-profit ad?

 
login to add comments/video/corrections