Guitar Tabs, Chords and Lyrics


Face The Day  Great White

[---]Face the Day
Written by Rick Brewster, Doc Neeson and John Brewster
Performed by Great White
From : The Best of Motley Crue and Great White
Tabbed by Mark White

Intro.
          [C]             [Am]                      [C]              [Am]                       
---------|----------------|-----------------|----------------|
---------|----------------|-----------------|----------------|
-------7-|5---------------|---------------7-|5---------------|
---5---7-|5-------------7-|-----------5---7-|5-------------7-|
s7---0---|------------0-7-|--------s7---0---|------------0-7-|
---------|----------------|-----------------|----------------|


                   [C]             [C5]                [Csus4]                    [Am]              
------------------|----------------|-----------------|----------------|
------------------|----------------|-----------------|----------------|
----------------7-|5-------------5-|5-------------5--|5---------------|
------------5---7-|5-------------4-|4-------------3--|3-------------7-|
---------s7---0---|------------0---|-----------0-----|------------0-7-|
------------------|----------------|-----------------|----------------|
-----------------|
-----------------|
---------------7-|
7----------5---7-|
7-------s7---0---|
-----------------|


1. I don't wonna [C]face the [Am]day,
I don't wonna [C]face the [Am]day,
I don't wonna [C]face the [C5]day,
[Csus4]the day, to[Am]day.
[C]Long night[Am]s leave me stranded.
[C]Black visions[Am], danger signs.
[C]No love,[Am] I need protection.
[C]Feels like I'm on [Am]production line.
[C]Daggers of dawn,[Am] cold hearted day,
[C]why does it have to be [Am]morning ?
[C]Cover my head,[Am] stayin' in bed,
[C]too late the luckless [Am]warming.
I don't wonna face[C] the day, [C5]
the [C4]day, tod[Am]ay.
I dont' wonna face[C] the day, [C5]
the [C4]day, tod[Am]ay.
[C]Outside, [Am]screaming city;
[C]red lights[Am], hungry eyes.
[C]Sucks like [Am]a space invader,
[C]the vacuum of it's [Am]lies.
[C]Stealin' my strength,[Am]
Stealin' my time,
it's [C]rainin' in a world of[Am] traders.

I don't wonna [C]face the day.[Am]
I don't wonna [C]face the day.[Am]

[C5]   [D5]  Let me keep on sleeping, [C5]
[D5] forget that I'm alone[C5].
[D5] One day of faceless living
[C5]is [D5]twenty four hours too [B5]long. [E5]
I don't wonna [C]face the day.[Am]
I don't wonna [C]face the day.[Am]
I don't wonna [C]face the [C5]day,
the[Csus4] day, [Am]today.
SOLO

[C]Give me the night[Am]

It's more forgiving.
[C]Hold back the light from [Am]my eyes.
[C]Please stay[Am] invisible darkness

[C]cant' see the tears [Am]that I cry.
[C]I know it's coming,[Am]

loaded with nothing,
[C]trapped in a tunnel of [Am]time.

I don't wonna [C]face the day. [Am]
I don't wonna [C]face the day. [Am]
I don't wonna [C]face the [C5]day,
the[Csus4] day, [Am]today.

Repeat and fade, ad lib vocals on repeat.

Important: The song above is NOT stored on the Chordie server. The original song is hosted at www.guitaretab.com. Chordie works as a search engine and provides on-the-fly formatting. Chordie does not index songs against artists'/composers' will. To remove this song please click here.

Text color:
Chord color:
Chord grids: 
Font size:    
Page size: 

Am B5 C C4 C5 Csus4 D5 E5
variations - click chord images

Login - add to songbook

Transpose chords

Tuning

Rating click stars to rate

Layout
Accuracy

SHARE PAGE  




You need to log in to post comments