Chordie logo


If I Could Be Frank Youre Ugly   Greeley Estates



Band: Greeley Estates
Song: If I Could Be Frank, You're Ugly!
Album: Go West Young Man, Let The Evil Go East
Tuning: C


the verse was kinda tricky i think i figured it out pretty well though.
so...
hope you like it!


Intro:

                         2x
D|-------------------------|----------|
A|-------------------------|----------|
F|-------------------------|----------| listen to song for how many times
C|-------------------------|----------| you pick each single note.
G|-8--7--12--0--3----------|--00000~--|
C|-----------------2--3--2-|--00000~--|


Verse:  (listen carefully for those slides on the first part.)

                                                                       1.
D|-------------------------------------|---------------------------------|
A|-------------------------------------|---------------------------------|
F|-------------------------------------|---------------------------------|
C|-------------------------------------|---------------------------------|
G|----5-------5-----5------5------5----|---------5-------8p0---8p0--8h10-|
C|-/-----0000---000----000----000---/--|--00000-----7h8------0-----------|

                     2.
D|---------------------|
A|---------------------|
F|--10-----10----10----|   2x
C|--12-----12----12----|  
G|---------------------|
C|-----00-----00-------|


Chorus: 4x


D|--------------------------------------------------|
A|----------14----12-----14---------14----12----14--|
F|--------------------------------------------------|
C|--------------------------------------------------|
G|--13--13-----13----13------13--13----13----13-----|
C|--------------------------------------------------|

D|----------------------------------------------|
A|----------14-----12-----14-----14-----12--14--|
F|----------------------------------------------|
C|--12--12-----12-----12------10----10----------|
G|----------------------------------------------|
C|----------------------------------------------|


Verse
Chorus


Bridge:

                                       
D|----------------------------------------|
A|----------------------------------------|
F|----------------------------------------| 2x
C|----------------------------------------|
G|--000000~---00~---------8p0--8p0--8h10--|
C|--000000~---00~---7h8-------------------|



D|-------------------------------------------------------|
A|-------------------------------------------------------|
F|-------------------------------------------------------|
C|-------------------------------------------------------|
G|--00000~---8p0--8p0---00~---------8p0--8p0--8h10-------|
C|--00000~--------------00~---7h8------------------------|


verse 2x

                      3x
D|------|---------------|---------|
A|------|---------------|---------|
F|------|---------------|---------|
C|--8---|---0---10---8--|----0~---|
G|--8---|---0---10---8--|----0~---|
C|--8---|---0---10---8--|----0~---|


enjoy.
more on the way!

:]




Important: The song above is NOT stored on the Chordie server. The original song is hosted at www.guitaretab.com. Chordie works as a search engine and provides on-the-fly formatting. Chordie does not index songs against artists/composers will. To remove this song please click here.

This song is displayed as text-only. Transposing and tuning is only available for chordpro-songs.

Login - add to songbook

Rating click stars to rate

Layout
Accuracy

SHARE PAGE  




You need to log in to post comments