"yes"; ?> We Wont Believe The Lies by Greeley Estates - guitar chords, guitar tabs and lyrics - chordie

We Wont Believe The Lies

Greeley Estates

 F-133211
 C   x32010
G/B - x2x033
C/E - 032x10
Em - 022000

Intro: Am--F

Verse 1:
 Am
  If this is it, then whats the point of living without any hope
 FCG/BAm
we know that there is more than what we see a reason for being here
F C G/B C(Hold)
will we give in and let it suffocate us will we breathe
 AmFC
   we know we're worth more than they tell us
 G/BAm
so we search to find the truth
 FCG/B
could it be that the answer's right in front of our eyes

(Drumbeat left)

Chorus:
 C/EFCC/E
   if all we are is a mistake
 FCC/E
   then what's the point in all of this
 FCC/E
we won't believe the lies they are telling
 FC
we won't believe the lies

Verse 2:
 Am
  We're told that there is nothing sacred about the life we have
 FCG/B
what will it take for us to see beyond our circumstance

(Drumbeat left)

(Repeat Chorus)

Interlude: Am--FM7
e|----------------|--------3-3-3-3-|
B|-1-1-1----------|-1-1-1--1-1-1-1-|
G|-2-2-2--2-2-2-2-|-2-2-2----------|
D|-2-2-2----------|-3-3-3----------|
A|-0-0-0----------|----------------|
E|----------------|----------------|

x2 x2

Bridge:
 Am
Scream: Go Away!!!
 FAm
will we sit back and settle for
 F
a cheap imitation
 AmEmFAm
   will we sit back and settle for a cheap

Scream:
 EmF
 imitation

(Repeat Chorus twice while the 2nd guitar is doing this riff at 3:16)
e|---------------------------------|---------------------------------|
B|-6-5---6-5---6-5---6-5---6---6---|-8-6---8-6---8-6---8-6---5---5---|
G|-----5-----5-----5-----5---5---5-|-----5-----5-----5-----5---5---5-|
D|---------------------------------|---------------------------------| (x3)
A|---------------------------------|---------------------------------|
E|---------------------------------|---------------------------------|

then
e|---------------------------------|-8-----8-----8-----8--------------|
B|-6-5---6-5---6-5---6-5---6---6---|---8-----8-----8-----8----5---6---|
G|-----5-----5-----5-----5---5---5-|-----9-----9-----9-----9----5---5-|
D|---------------------------------|----------------------------------|
A|---------------------------------|----------------------------------|
E|---------------------------------|----------------------------------|


Outro:

Outro:
C(All the way)
is it so hard to see our way
C(Hold)
its so hard

at 4:11 you think that the song is already finished, I will give you the tab of this
song, this will only last less than 1 minute so you should play this part. It is 6/8 in
Just repeat this riff until it ends

Guitar 1:
e|-------------|-------------|-------------|-----------3-|
B|-------3-----|-------2-----|-------1-----|---------3---|
G|-----4---4---|-----2---2---|-----0---0---|-------0-----|
D|---4-------4-|---2-------2-|---2---------|-----0-------|
A|-2-----------|-0-----------|-----------2-|---2---------|
E|-------------|-------------|-0-----------|-3-----------|

x2 x2 x2 x2

Guitar 2:
e|----10----|----9----|-----8-|-----0--------14-12-|
B|-12----12-|-10---10-|---7---|---3--------0-------|
G|----------|---------|-9-----|-0--------0---------|
D|----------|---------|-------|--------------------|
A|----------|---------|-------|--------------------|
E|----------|---------|-------|--------------------|


Guitar 3:
e|-------------------------------------------------------|
B|-7-7-7-7-7-7-7-7-7-7-7-7-7-7-7-7-7-7-7-7-7-7--|
G|-------------------------------------------------------|
D|-------------------------------------------------------|
A|-------------------------------------------------------|
E|-------------------------------------------------------|				



Am C C/E Em F G/B
variations - click chord images
Transpose chords:
Tuning:
Cool service:
View: Size:
A  A  A
Rating:
Layout:
  • Currently 0/5 Stars.
  • 1
  • 2
  • 3
  • 4
  • 5
 
Accuracy:
  • Currently 0/5 Stars.
  • 1
  • 2
  • 3
  • 4
  • 5
 
click stars to rate
Chordie recommends:
Learn how to play guitar at JamPlay.com
Songbook:
Login to add this song to your songbook
Support the artist
Preview/buy this song
MSN Music
Why this non-profit ad?

 
login to add comments/video/corrections