Dominated Love Slave

Green Day

 Eb5
e------------------------------------------|
b------------------------------------------|
g---x-x-xxxx-8-8-88-8-8-88-8-8-88-8-8-88---|
D---x-x-xxxx-8-8-88-8-8-88-8-8-88-8-8-88---|
A---x-x-xxxx-6-6-66-6-6-66-6-6-66-6-6-66---|
E------------------------------------------|


Verse/Chorus:
 Eb5Ab5Eb5Bb5Eb5Ab5
e-----------------------------------------------------|
b-----------------------------------------------------|
g---8-8-88-------------8-8-8-8---------8-8-88---------|
D---8-8-88-6-666-6-666-8-8-8-8-8-88-88-8-8-88-6-666---|
A---6-6-66-6-666-6-666-6-6-6-6-8-88-88-6-6-66-6-666---|
E----------4-444-4-444---------6-66-66--------4-444---|


 Eb5Bb5Eb5
e----------------------------|
b----------------------------|
g---8-8-8-8---------8-8-88---|
D---8-8-8-8-8-8-8-8-8-8-88---|
A---6-6-6-6-8-8-8-8-6-6-66---|
E-----------6-6-6-6----------|


Verse x1

Chorus x1

Solo (w/ distortion pedal):
 ADAEAD7
e-----0000000-33-----3-0000000-00------0000000-22---------|
b-----2222222-22----2--2222222-00------2222222-11-----2---|
g-----2222222-33-3-3---2222222-11----1-2222222-22----1----|
D-----2222222-00-------2222222-22---2--2222222-00-2-2-----|
A------------------------------22--2----------------------|
E---0--------------------------00-0-----------------------|


 A
e---0000000\--/12~(x)\---|
b---2222222\-------------|
g---2222222\-------------|
D---2222222\-------------|
A------------------------|
E------------------------|


Chorus x1 (w/ no Gtr. on "driiivvveee..."

Outro:

e-----------|
b-----------|
g-----------|
D-----------|
A----8(b)---|
E---8-------|


That's it! The solo is the only hard part in the song
and once you get the picking down it's easy!
===========Green Day - Dominated Love Slave
Submitted By: Jason Lee
EMail: loser_guitarist@hotmail.com
album: Kerplunk!

the chords:
 D#G#Bb
E:-------------
B:-------------
G:-8-----------
D:-8---6---8---
A:-6---6---8---
E:-----4---6---


verse 1:
 D#G#
I wanna be your dominated love slave
 D#Bb
I wanna be the one who takes the pain
 D#G#
 You can spank me when I do not behave
 D#BbD#
Smack me in the forehead with a chain  

chorus 1:
 G#D#
Cuz I love feelin dirty
 BbD#
And I love feelin cheap
 G#D#
And I love it when you hurt me
 BbD#
So drive them staples deep

verse: (same as verse 1)
chorus: (same as chorus 1)

during the solo there is no rhythm guitar

chorus: (same as chorus 1)

tabbed out 12/17/02 by =jl=


A Ab5 Bb Bb5 D D# D7 E Eb5 G#
variations - click chord images
Transpose chords:
Tuning:
Cool service:
View: Size:
A  A  A
Rating:
Layout:
  • Currently 2.3/5 Stars.
  • 1
  • 2
  • 3
  • 4
  • 5
 
Accuracy:
  • Currently 2.1/5 Stars.
  • 1
  • 2
  • 3
  • 4
  • 5
 
click stars to rate
Chordie recommends:
Learn how to play guitar at JamPlay.com
Songbook:
Login to add this song to your songbook
Support the artist
Preview/buy this song
MSN Music
Why this non-profit ad?

 
login to add comments/video/corrections