"yes"; ?> Good Riddance by Green Day - guitar chords, guitar tabs and lyrics - chordie

Good Riddance

Green Day

 GEmGadd9DC
e ---3---0---3-----2---0---
b ---3---0---3-----3---1---
G ---0---0---0-----2---0---
D ---0---2---2-----0---2---
A ---2---2---3-----x---3---
E ---3---0---x-----x---x---

The stuff up intro:
e ------------|----------
b ------------|----------
G -------0----|------0---
D ---------0--|--------0-
A ------------|----------
E ---3-3------|--3-3-----

Verse 1 play 4 times
 GGCadd9DG
e --------------|----------------|---------------|-----------------
b ------3-------|--------3-------|-------3-------|-------3---------
G -(0)----0---0-|----------0---0-|---------0---2-|---------2---0---
D --------------|----------------|---------------|-0-0-------0-----
A ----------2---|------------2---|---3-3-----3---|-----------------
E --3-3---------|----3-3---------|---------------|-----------------

1. intro
2. intro
 GGCadd9D
  3. Another turning point the fork's stick in the road,
 GGCadd9D
  4. Time grabs you by the wrist, directs you where to go,
*note: only pick the first G on the G string (0) the first time
Play twice:
 EmDCG
e ---------------|---------------|--------------|----------------
b -------0-------|------3--------|------1-------|------3---------
G ---------0---2-|--------2---0--|--------0---0-|--------0---0---
D ---------------|--0-0----------|--------------|----------------
A -----------2---|----------0----|--3-3-----3---|----------2-----
E ---0-0---------|---------------|--------------|--3-3-----------

 EmDCG
  1. so make the best of this test and dont ask why
 EmDCG
  2. Its not a question but a lesson learned in time
Play once:
 EmGEmGEm
e -------------|-------------|-------------|--------------
b -----0-------|-----3-------|-----0-------|-----3--------
G -------0---0-|-------0---0-|-------0---0-|-------0---0--
D -------------|-------------|-------------|--------------
A ---------2---|---------2---|---------2---|---------2----
E -0-0---------|-3-3---------|-0-0---------|-3-3----------

 EmGEmG
  Its something unpredictable, but in the end is right,
e -------------|-----------------
b -----0-------|-----3-----------
G -------0---2-|-------2---0-----
D -------------|-0-0-------------
A ---------2---|---------0-------
E -0-0---------|-----------------

Em D (G ....strumming)
I hope you had the time of your life
Now it starts strumming: Strum down, down, up, up, down, up
 GGCadd9DGGCadd9DGGCadd9D
                         So take the photographs and still frames in your mind.
 GGCadd9D
 Hang it on a shelf in good health and good time.
 EmDCG
 Tattoos of memories and dead skin on trial.
 EmDCG
 For what its worth it was worth all the while
 EmGEmG
 It's something unpredictable, but in the end is right
 EmDG
hope you had the time of your life
(Bridge with the violin.)
G G Cadd9 D x4
Em D C G x2
 EmGEmG
 It's something unpredictable, but in the end is right
 EmDG
hope you had the time of your life
 GCadd9DGGCadd9D
                       Now to end it:
 EmGEmGEm
e ---------------|---------------|--------------|---------------
b -------0-------|------3--------|-----0--------|-----3---------
G ---------0---0-|--------0---0--|-------0---0--|-------0---0---
D ---------------|---------------|--------------|---------------
A -----------2---|----------2----|---------2----|---------2-----
E ---0-0---------|--3-3----------|-0-0----------|-3-3-----------

its something unpredictable, but in the end is right,
 EmDG
e ----------------|------------------
b -------0--------|------3-----------
G ---------0---2--|--------2---0-----
D ----------------|--0-0-------------
A -----------2----|----------0-------
E ---0-0----------|------------------

i hope you had the time of your life
 GGCadd9DG
e ---------------|-------------|-------------|---------------
b -------3-------|-----3-------|-----3-------|-----3---------
G ---------0---0-|-------0---0-|-------0---2-|-------2---0---
D ---------------|-------------|-------------|-0-0-----------
A -----------2---|---------2---|-3-3-----3---|---------0-----
E ---3-3---------|-3-3---------|-------------|---------------
e ---------------|---------------|--------------|---------------3---]
b -------3-----3-|------3--------|-----3--------|-----3---------3---]
G ---------0-----|--------0---0--|-------0---2--|-------2-2-----0---]
D ---------------|---------------|--------------|-0-0-----------0---]
A -----------2---|----------2----|-3-3-----3----|-----------0---2---]
E ---3-3---------|--3-3----------|--------------|---------------3---]


C Cadd9 D Em G Gadd9
variations - click chord images
Transpose chords:
Tuning:
Cool service:
View: Size:
A  A  A
Rating:
Layout:
  • Currently 3.5/5 Stars.
  • 1
  • 2
  • 3
  • 4
  • 5
 
Accuracy:
  • Currently 3.5/5 Stars.
  • 1
  • 2
  • 3
  • 4
  • 5
 
click stars to rate
Chordie recommends:
Learn to play guitar with video-based, online guitar lessons at JamPlay.com
Songbook:
Login to add this song to your songbook
Support the artist
Preview/buy this song
MSN Music
Why this non-profit ad?

 
login to add comments/video/corrections