Guitar Tabs, Chords and Lyrics


Android   Green Day



                               Android
                               Green day
                               Kerplunk
                         tabbed by bailinator


              This song is in e flat tuning
     Sorry but i couldnt get the intro but heres the bit after it.
               intro                                     x2
               ---------------------------------------------|
               ---------------------------------------------|
               -4-x-x---------------------------------------|
               -4-x-x-2-x-x-7-x-x-4-4-----------------------|
               -2-x-x-2-x-x-7-x-x-4-4-----------------------|
               -------0-x-x-5-x-x-2-2-----------------------|
                Verse                                   x2
               ---------------------------------------------|
               ---------------------------------------------|
               -4-4------9-x-x------------------------------|
               -4-4-x32--9-x-x-x4---------------------------|
               -2-2------7-x-x------------------------------|
               ---------------------------------------------|
                  .
               Pre chorus                            x4
               --------------0-0-0----------------------|
               --------------0-0--0---------------------|
               -4-4-4-4-4----1-1------------------------|
               -4-4-4-4-4----2-2----7-7-7-7-7-4-4-4-4-4-|
               -2-2-2-2-2----2-2----7-7-7-7-7-4-4-4-4-4-|
               --------------0-0----5-5-5-5-5-2-2-2-2-2-|

                                intro x2

                                verse x2

                               prechorus x4

                                 intro x2

                bridge                                 x2
               ---------------------------------------------|
               ---------------------------------------------|
               ---------------------------------------------|
               --9-9-----7-7-----6-6-----4-4----------------|
               --9-9-x10-7-7-x10-6-6-x10-4-4-x10------------|
               --7-7-----5-5-----4-4-----2-2----------------|
                   .       .       .       .

intro x4

pre interlude let b chord ring

just keep playin this riff repeatedly
 --0~-----------------------------------------|
 ----0~---------------------------------------|
 ---------------------------------------------|
 ---------------------------------------------|
 ---------------------------------------------|
 ---------------------------------------------|

after the above riff the bridge is played twice all palm muted.

  pre outro (play the intro 4 times)

outro
 -----------------------------------------------|
 -----------------------------------------------|
 -4---------------------------------------------|
 -4---------------------------------------------|
 -2---------------------------------------------|
 -----------------------------------------------|

symbols
x= scratch
.= palm mute
~= let notes ring



Important: The song above is NOT stored on the Chordie server. The original song is hosted at www.guitaretab.com. Chordie works as a search engine and provides on-the-fly formatting. Chordie does not index songs against artists'/composers' will. To remove this song please click here.

This song is displayed as text-only. Transposing and tuning is only available for chordpro-songs.

Login - add to songbook

Rating click stars to rate

Layout
Accuracy

SHARE PAGE  




You need to log in to post comments