Guitar Tabs, Chords and Lyrics


Coming Clean   Green Day



Tuning:   1/2 Step Down - (Eb Ab Db Gb Bb eb)



Key:   x    - Muffled




Verse 1

eb|---------------------------------------------------------------------------|
Bb|---------------------------------------------------------------------------|
Gb|--4------------------------------------------------------------------------|
Db|--4--------6---------------------------------------------------------------|
Ab|--2--------6---------------------------------------------------------------|
Eb|-----------4---------------------------------------------------------------|


eb|---------------------------------------------------------------------------|
Bb|---------------------------------------------------------------------------|
Gb|--4-x-4-4-x-4--4-x-4-4-4-4-------------------------------------------------|
Db|--4-x-4-4-x-4--4-x-4-4-4-4-6-x-6-6-x-6--6-x-6-6-6-6------------------------|
Ab|--2-x-2-2-x-2--2-x-2-2-2-2-6-x-6-6-x-6--6-x-6-6-6-6------------------------|
Eb|---------------------------4-x-4-4-x-4--4-x-4-4-4-4------------------------|


eb|--------------------------------------0------------------------------------|
Bb|--------------------------------------0------------------------------------|
Gb|---------------------------------------------------------------------------|
Db|--4--4-4--4--4--4-4-4-4-4--2--2-2-2-2-2--2-2-2-2-2-2-2---------------------|
Ab|--4--4-4--4--4--4-4-4-4-4--2--2-2-2-2-2--2-2-2-2-2-2-2---------------------|
Eb|--2--2-2--2--2--2-2-2-2-2--0--0-0-0-0-0--0-0-0-0-0-0-0---------------------|


eb|---------------------------------------------------------------------------|
Bb|---------------------------------------------------------------------------|
Gb|---------------------------------------------------------------------------|
Db|--4--4-4-4-4-4--4-4-4-4-4-4-4--2--2-2-2-2-2-2-2-2-2-2-2-2-2-2--------------|
Ab|--4--4-4-4-4-4--4-4-4-4-4-4-4--2--2-2-2-2-2-2-2-2-2-2-2-2-2-2--------------|
Eb|--2--2-2-2-2-2--2-2-2-2-2-2-2--0--0-0-0-0-0-0-0-0-0-0-0-0-0-0--------------|




Verse 2

eb|---------------------------------------------------------------------------|
Bb|---------------------------------------------------------------------------|
Gb|--4-x-4-4-x-4--4-x-4-4-4-4-------------------------------------------------|
Db|--4-x-4-4-x-4--4-x-4-4-4-4-6-x-6-6-x-6--6-x-6-6-6-6------------------------|
Ab|--2-x-2-2-x-2--2-x-2-2-2-2-6-x-6-6-x-6--6-x-6-6-6-6------------------------|
Eb|---------------------------4-x-4-4-x-4--4-x-4-4-4-4------------------------|


eb|---------------------------------------------------------------------------|
Bb|---------------------------------------------------------------------------|
Gb|--4-x-4-4-x-4--4-x-4-4-4-4-------------------------------------------------|
Db|--4-x-4-4-x-4--4-x-4-4-4-4-6-x-6-6-x-6--6-x-6-6-6-6------------------------|
Ab|--2-x-2-2-x-2--2-x-2-2-2-2-6-x-6-6-x-6--6-x-6-6-6-6------------------------|
Eb|---------------------------4-x-4-4-x-4--4-x-4-4-4-4------------------------|


eb|--------------------------------------0------------------------------------|
Bb|--------------------------------------0------------------------------------|
Gb|---------------------------------------------------------------------------|
Db|--4--4-4--4--4--4-4-4-4-4--2--2-2-2-2-2--2-2-2-2-2-2-2---------------------|
Ab|--4--4-4--4--4--4-4-4-4-4--2--2-2-2-2-2--2-2-2-2-2-2-2---------------------|
Eb|--2--2-2--2--2--2-2-2-2-2--0--0-0-0-0-0--0-0-0-0-0-0-0---------------------|


eb|---------------------------------------------------------------------------|
Bb|---------------------------------------------------------------------------|
Gb|---------------------------------------------------------------------------|
Db|--4--4-4-4-4-4--4-4-4-4-4-4-4--2--2-2-2-2-2-2-2-2-2-2-2-2-2-2--------------|
Ab|--4--4-4-4-4-4--4-4-4-4-4-4-4--2--2-2-2-2-2-2-2-2-2-2-2-2-2-2--------------|
Eb|--2--2-2-2-2-2--2-2-2-2-2-2-2--0--0-0-0-0-0-0-0-0-0-0-0-0-0-0--------------|




Solo (Gtr 1)

eb|---------------------------------------------------------------------------|
Bb|--7--4-4--4--4--4--4---4--5-4--4--4--5-4--------(x2)-----------------------|
Gb|--4--4-4--4--6--4--6---4--4-4--4--4--4-4-----------------------------------|
Db|---------------------------------------------------------------------------|
Ab|---------------------------------------------------------------------------|
Eb|---------------------------------------------------------------------------|


eb|--------------------------0--------0--0-0-0-0-0-0-0------------------------|
Bb|--------------------------0--------0--0-0-0-0-0-0-0------------------------|
Gb|--3--4-4--6--4--3--4-4-----------------------------------------------------|
Db|--4--4-4--4--4--4--4-4--2-2--2-2-2-2--2-2-2-2-2-2-2------------------------|
Ab|------------------------2-2--2-2-2-2--2-2-2-2-2-2-2------------------------|
Eb|------------------------0-0--0-0-0-0--0-0-0-0-0-0-0------------------------|


eb|--------------------------0------------------------------------------------|
Bb|--------------------------0------------------------------------------------|
Gb|--3--4-4--6--4--3--4-4------9-9-9-9-9-9-9-9-9-9-9-9------------------------|
Db|--4--4-4--4--4--4--4-4--2-2-9-9-9-9-9-9-9-9-9-9-9-9------------------------|
Ab|------------------------2-2-7-7-7-7-7-7-7-7-7-7-7-7------------------------|
Eb|------------------------0-0------------------------------------------------|




Solo (Gtr 2)

eb|---------------------------------------------------------------------------|
Bb|---------------------------------------------------------------------------|
Gb|--4-x-4-4-x-4--4-x-4-4-4-4-------------------------------------------------|
Db|--4-x-4-4-x-4--4-x-4-4-4-4-6-x-6-6-x-6--6-x-6-6-6-6------------------------|
Ab|--2-x-2-2-x-2--2-x-2-2-2-2-6-x-6-6-x-6--6-x-6-6-6-6------------------------|
Eb|---------------------------4-x-4-4-x-4--4-x-4-4-4-4------------------------|


eb|---------------------------------------------------------------------------|
Bb|---------------------------------------------------------------------------|
Gb|--4-x-4-4-x-4--4-x-4-4-4-4-------------------------------------------------|
Db|--4-x-4-4-x-4--4-x-4-4-4-4-6-x-6-6-x-6--6-x-6-6-6-6------------------------|
Ab|--2-x-2-2-x-2--2-x-2-2-2-2-6-x-6-6-x-6--6-x-6-6-6-6------------------------|
Eb|---------------------------4-x-4-4-x-4--4-x-4-4-4-4------------------------|


eb|--------------------------------------0------------------------------------|
Bb|--------------------------------------0------------------------------------|
Gb|---------------------------------------------------------------------------|
Db|--4--4-4--4--4--4-4-4-4-4--2--2-2-2-2-2--2-2-2-2-2-2-2---------------------|
Ab|--4--4-4--4--4--4-4-4-4-4--2--2-2-2-2-2--2-2-2-2-2-2-2---------------------|
Eb|--2--2-2--2--2--2-2-2-2-2--0--0-0-0-0-0--0-0-0-0-0-0-0---------------------|


eb|---------------------------------------------------------------------------|
Bb|---------------------------------------------------------------------------|
Gb|---------------------------------------------------------------------------|
Db|--4--4-4-4-4-4--4-4-4-4-4-4-4--2--2-2-2-2-2-2-2-2-2-2-2-2-2-2--------------|
Ab|--4--4-4-4-4-4--4-4-4-4-4-4-4--2--2-2-2-2-2-2-2-2-2-2-2-2-2-2--------------|
Eb|--2--2-2-2-2-2--2-2-2-2-2-2-2--0--0-0-0-0-0-0-0-0-0-0-0-0-0-0--------------|




Verse 3

eb|---------------------------------------------------------------------------|
Bb|---------------------------------------------------------------------------|
Gb|--4-x-4-4-x-4--4-x-4-4-4-4-------------------------------------------------|
Db|--4-x-4-4-x-4--4-x-4-4-4-4-6-x-6-6-x-6--6-x-6-6-6-6------------------------|
Ab|--2-x-2-2-x-2--2-x-2-2-2-2-6-x-6-6-x-6--6-x-6-6-6-6------------------------|
Eb|---------------------------4-x-4-4-x-4--4-x-4-4-4-4------------------------|


eb|---------------------------------------------------------------------------|
Bb|---------------------------------------------------------------------------|
Gb|--4-x-4-4-x-4--4-x-4-4-4-4-------------------------------------------------|
Db|--4-x-4-4-x-4--4-x-4-4-4-4-6-x-6-6-x-6--6-x-6-6-6-6------------------------|
Ab|--2-x-2-2-x-2--2-x-2-2-2-2-6-x-6-6-x-6--6-x-6-6-6-6------------------------|
Eb|---------------------------4-x-4-4-x-4--4-x-4-4-4-4------------------------|


eb|---------------------------------------------------------------------------|
Bb|---------------------------------------------------------------------------|
Gb|---------------------------------------------------------------------------|
Db|--4--4-4--4--4--4-4-4-4-4--2--2-2-2-2-2--2-2-2-2-2-2-2---------------------|
Ab|--4--4-4--4--4--4-4-4-4-4--2--2-2-2-2-2--2-2-2-2-2-2-2---------------------|
Eb|--2--2-2--2--2--2-2-2-2-2--0--0-0-0-0-0--0-0-0-0-0-0-0---------------------|


eb|---------------------------------------------------------------------------|
Bb|---------------------------------------------------------------------------|
Gb|---------------------------------------------------------------------------|
Db|--4--4-4--4--4--4-4-4-4-4--2--2-2-2-2-2-2-2-2-2-2-2-2-2-2------------------|
Ab|--4--4-4--4--4--4-4-4-4-4--2--2-2-2-2-2-2-2-2-2-2-2-2-2-2------------------|
Eb|--2--2-2--2--2--2-2-2-2-2--0--0-0-0-0-0-0-0-0-0-0-0-0-0-0------------------|


eb|---------------------------------------------------------------------------|
Bb|---------------------------------------------------------------------------|
Gb|--4----------4-------------------------------------------------------------|
Db|--4----------4-------------------------------------------------------------|
Ab|--2----------2-------------------------------------------------------------|
Eb|---------------------------------------------------------------------------|


Important: The song above is NOT stored on the Chordie server. The original song is hosted at www.guitaretab.com. Chordie works as a search engine and provides on-the-fly formatting. Chordie does not index songs against artists/composers will. To remove this song please click here.

This song is displayed as text-only. Transposing and tuning is only available for chordpro-songs.

Login - add to songbook

Rating click stars to rate

Layout
Accuracy

SHARE PAGE  




You need to log in to post comments