Chordie logo


Scattered   Green Day



-----------------------------------------------------------------------------
			     Scattered - Green DAY
-----------------------------------------------------------------------------
Tabbed by:NOFXMIKE
Email:NO
Tuning:Standard
Intro(clean tone-fade in)
e|---2---------------------------------------------|
B|---2---------------------------------------------|
G|---4---------------------------------------------|
D|---4---------------------------------------------|
A|---x---------------------------------------------|
E|---2---------------------------------------------|
     T
 Rhythm figure 1.
e|------------------------------------------------|
B|------------------------------------------------|
G|------------------------------------------------|
D|----9----9---9-9-9-7-----2----------------------|
A|----9----9---9-9-9-7-----2----------------------|
E|----7----7---7-7-7-5-4-0-0----------------------|

  Rhythm fill 1
e|----------------------------------------------------|
B|----------------------------------------------------|
G|----------------------------------------------------|
D|----9----9---9-9-9-7-9-9-9--------------------------|
A|----9----9---9-9-9-7-9-9-9--------------------------|
E|----7----7---7-7-7-5-7-7-7--------------------------|

1)Well I've got some scattered pictures lying on my bedroom floor
e|----------------------------------------------------------------|
B|----9-----------------------------------------------------------|
G|----9--------------------------------5--------------------------|
D|----9--------------------------------6--------------------------|
A|----7--------------------------------6--------------------------|
E|-------------------------------------4--------------------------|

1)Reminds me of the times we shared--Makes me wish that you were here
e|-------------------------------------------------------------------|
B|-------------------------------------------------------------------|
G|--6-------------------------------8--------------------------------|
D|--7-------------------------------9--------------------------------|
A|--7-------------------------------9--------------------------------|
E|--5-------------------------------7--------------------------------|

)CUz now it seems i've forgotten my purpose in this life

Important: The song above is NOT stored on the Chordie server. The original song is hosted at www.guitaretab.com. Chordie works as a search engine and provides on-the-fly formatting. Chordie does not index songs against artists/composers will. To remove this song please click here.

This song is displayed as text-only. Transposing and tuning is only available for chordpro-songs.

Login - add to songbook

Rating click stars to rate

Layout
Accuracy

SHARE PAGE  




You need to log in to post comments