Guitar Tabs, Chords and Lyrics


Tight Wad Hill   Green Day



                               Green Day
                             Tight Wad Hill
                               Insomniac

       Verse: 1x

e----------------------------------------------------------------------|
B----------------------------------------------------------------------|
G--22222222222--22222222222---------------22222222222------22222222222-|
D--22222222222--22222222222--55555555555--22222222222--55--22222222222-|
A--00000000000--00000000000--55555555555--00000000000--55--00000000000-|
E----------------------------33333333333---------------33--------------|

e----------------------------------------------------------------------|
B----------------------------------------------------------------------|
G--22222222222------------------2222---222222222-----------------------|
D--22222222222--55555555555-----2222-5-222222222-----------------------|
A--00000000000--55555555555-----0000-5-000000000-----------------------|
E---------------33333333333----------3---------------------------------|

        Pre-chorus: 2x

e----------------------------------------------------------------------|
B----------------------------------------------------------------------|
G---22222222------------2222---222222----------------------------------|
D---22222222--55555555--2222-5-222222----------------------------------|
A---00000000--55555555--0000-5-000000----------------------------------|
E-------------33333333-------3-----------------------------------------|

       Chorus: 1x

e----------------------------------------------------------------------|
B----------------------------------------------------------------------|
G--22222--------22222---------5-------222222222------------------------|
D--22222-55555--22222-55555---5---5---222222222--55--------------------|
A--00000-55555--00000-55555---3---5---000000000--55--------------------|
E--------33333--------33333-------3--------------33--------------------|

      Verse: 1x
      Pre-chorus: 2x
      Chorus: 1x

        Bridge: 1x

e----------------------------------------------------------------------|
B----------------------------------------------------------------------|
G---22222222222222222222-------------2222---22222-----2222222222222222-|
D---22222222222222222222-5555555555--2222-5-22222-55--2222222222222222-|
A---00000000000000000000-5555555555--0000-5-00000-55--0000000000000000-|
E------------------------3333333333-------3-------33-------------------|

e----------------------------------------------------------------------|
B----------------------------------------------------------------------|
G--22222-------------2222----2222222222--------------------------------|
D--22222-5555555555--2222-5--2222222222--------------------------------|
A--00000-5555555555--0000-5--0000000000--------------------------------|
E--------3333333333-------3--------------------------------------------|

        Pre-chorus: 2x
        Chorus: 1x

          Outro: 1x

e----------------------------------------------------------------------|
B----------------------------------------------------------------------|
G---222222222222-----2-------------------------------------------------|
D---222222222222-55--2-------------------------------------------------|
A---000000000000-55--0-------------------------------------------------|
E----------------33----------------------------------------------------|


         Green Day is one of the best bands ever! Rate this tab 'cause I want to see 


Important: The song above is NOT stored on the Chordie server. The original song is hosted at www.guitaretab.com. Chordie works as a search engine and provides on-the-fly formatting. Chordie does not index songs against artists/composers will. To remove this song please click here.

This song is displayed as text-only. Transposing and tuning is only available for chordpro-songs.

Login - add to songbook

Rating click stars to rate

Layout
Accuracy

SHARE PAGE  




You need to log in to post comments