Chordie logo


Flight Of The Skajaquada   Green Jelly



Band: Green Jelly
Song: Flight of the Skajaquada

Tabber: John Cukras
Email: riffreaper@yahoo.com

Tuning: Normal

Riff 1: A                  B
E----------------|---------------------------------------------------------------------------------
B----------------|---------------------------------------------------------------------------------
G----------------|---------------------------------------------------------------------------------
D-44-44----------|---------------------------------------------------------------------------------
A-22-22 x's 17---|--------------------------888-999-101010-11-10-9--111111-121212-131313-14-13-12^^
E----------------|-777-888-999-10-9-8 x' 4---------------------------------------------------------

Riff 2:
E--------------
B--------------
G--------------
D-44--5-5------
A-22--3-3 x's 6
E--------------

Riff 1: B x's 12 (it switches off between them. you can use anything really as the combo for variety.)

Riff 3:
E------------------------------
B------------------------------
G------------------------------
D-10-9---------10-9------------
A-10-9-9-8-77--10-9-9-8-777-999
E------7-6-55-------7-6-555-777  x's 2

Riff 1: B x's 12

Riff 3 once

Riff 4:
E--------------------------------------------------------------------------
B--------------------------------------------------------------------------
G--------------------------------------------------------------------------
D-10-9---------10-9---44---------------------44---------------------4-4---4
A-10-9-9-8-77--10-9---22 x's 20 (fades out)--22 x's 20 (fades out)--2-2---2


Important: The song above is NOT stored on the Chordie server. The original song is hosted at www.guitaretab.com. Chordie works as a search engine and provides on-the-fly formatting. Chordie does not index songs against artists/composers will. To remove this song please click here.

This song is displayed as text-only. Transposing and tuning is only available for chordpro-songs.

Login - add to songbook

Rating click stars to rate

Layout
Accuracy

SHARE PAGE  




You need to log in to post comments