Guitar Tabs, Chords and Lyrics


A Wish   Gregory and The Hawk


|--------------------------|--------------------------|








|-----------3-----------3--|-----------0-----------3--|








|-----0-----------0--------|-----0-----------0--------|



|--------2-----------2-----|--------2-----------2-----|



|--3-----------2-----------|--0-----------2-----------|



|--------------------------|--------------------------|





Verse (i)[x8], (iii)[x8], (vi)[x9]


                                                                                              


|--------------------------|--------------------------|
|-----------3-----------3--|-----------0-----------3--|
|-----0-----------0--------|-----0-----------0--------|
|--------2-----------2-----|--------2-----------2-----|
|--3-----------2-----------|--0-----------2-----------|
|--------------------------|--------------------------|








Chorus (ii)[x4], (iv)[x4], (vii)[x6]





                                                                                              


|--------------------------|--------------------------|
|-----------3-----------3--|-----------3-----------3--|
|-----0-----------0--------|-----0-----------0--------|
|--------2-----------2-----|--------2-----------2-----|
|--3-----------2-----------|--1-----------------------|
|--------------------------|--------------3-----------|








And end with


                                                                                              


|--------------------------|--------------------------|
|-----------3-----------3--|-----------3--------------|
|-----0-----------0--------|-----0--------------------|
|--------2-----------2-----|--------2-----------------|
|--3-----------2-----------|--1-----------------------|
|--------------------------|--------------3-----------|





For the last line in the chorus





Bridge (v)[x8]





                                                                                              


|--------------------|
|--3--------1--------|
|--0--------0--------|
|--0-----------------|
|--2--------0--------|
|--------------------|
----------------------------------------------------------------------------








No capo





Intro x 2





                                                                                              


|--------------------------|--------------------------|
|-----------6-----------6--|-----------3-----------6--|
|-----3-----------3--------|-----3-----------3--------|
|--------5-----------5-----|--------5-----------5-----|
|--6-----------5-----------|--3-----------5-----------|
|--------------------------|--------------------------|








Verse (i)[x8], (iii)[x8], (vi)[x9]





                                                                                              


|--------------------------|--------------------------|
|-----------6-----------6--|-----------3-----------6--|
|-----3-----------3--------|-----3-----------3--------|
|--------5-----------5-----|--------5-----------5-----|
|--6-----------5-----------|--3-----------5-----------|
|--------------------------|--------------------------|








Chorus (ii)[x4], (iv)[x4], (vii)[x6]





                                                                                              


|--------------------------|--------------------------|
|-----------6-----------6--|-----------6-----------6--|
|-----3-----------3--------|-----3-----------3--------|
|--------5-----------5-----|--------5-----------5-----|
|--6-----------5-----------|--4-----------------------|
|--------------------------|--------------6-----------|








And end with


                                                                                              


|--------------------------|--------------------------|
|-----------6-----------6--|-----------6--------------|
|-----3-----------3--------|-----3--------------------|
|--------5-----------5-----|--------5-----------------|
|--6-----------5-----------|--4-----------------------|
|--------------------------|--------------6-----------|





For the last line in the chorus





Bridge (v)[x8]





                                                                                             


|--------------------|
|--6--------4--------|
|--3--------3--------|
|--3-----------------|
|--5--------3--------|
|--------------------|



Important: The song above is NOT stored on the Chordie server. The original song is hosted at www.guitaretab.com. Chordie works as a search engine and provides on-the-fly formatting. Chordie does not index songs against artists'/composers' will. To remove this song please click here.

This song is displayed as text-only. Transposing and tuning is only available for chordpro-songs.

Login - add to songbook

Rating click stars to rate

Layout
Accuracy

SHARE PAGE  




You need to log in to post comments