Chordie logo

B12   Grey Daze



If you're a big fan of Linkin Park then you know that this is frontman Chester 
old band. They had some pretty sweet songs like this one.

Intro/verse:
e|---------------12-------------------------------------------|
B|-------------------12--12-----------------------------------|
G|------------------------------------------------------------|play 2x and
D|-1//9-------------------------9-----------------------------|let the last
A|------------------------------------------------------------|note ride the
E|------------------------------------------------------------|2nd time

pre-chorus:
e|------------------------------------------------------------|
B|------------------------------------------------------------|
G|------------------------------------------------------------|
D|--9~--------------------------------------------------------|
A|------------------------------------------------------------|
E|------------------------------------------------------------|

("Hooray, Hoorah..."

e|------------------------------------------------------------|
B|-12-12-12-12-12-12-12-12------------------------------------|
G|-x--x--x--x--x--x--x--x-------------------------------------|
D|-9--9--9--9--9--9--9--9-------------------------------------|
A|------------------------------------------------------------|
E|------------------------------------------------------------|


Chorus:
e|------------------------------------------------------------|
B|------------------------------------------------------------|play this 4x
G|-4-4--------------------------------------------------------|
D|-4-4--4-4--5-5-5-5--2-2-------------------------------------|
A|-2-2--4-4--5-5-5-5--2-2-------------------------------------|
E|------2-2--3-3-3-3--0-0-------------------------------------|


Repeat Verse 2x
Repeat pre-chorus
Repeat Chorus

Brigde:

e|------------------------------------------------------------|
B|------------------------------------------------------------|play 4x
G|------------------------------------------------------------|
D|-1//9-------------------------------------------------------|
A|------------------------------------------------------------|
E|------------------------------------------------------------|


After sliding:
e|--12-12-----------------------------------------------------|
B|--12-12-----------------------------------------------------|
G|------------------------------------------------------------|
D|------------------------------------------------------------|
A|------------------------------------------------------------|
E|------------------------------------------------------------|

Repeat Chorus

Ends with:

e|------------------------------------------------------------|
B|------------------------------------------------------------|
G|-4-4--------------------------------------------------------|
D|-4-4--4-4---------------------------------------------------|
A|-2-2--4-4---------------------------------------------------|
E|------2-2---------------------------------------------------|


and that's the whole song
and that was my first tab

any corrections comment and let me know so i can fix it =)



Important: The song above is NOT stored on the Chordie server. The original song is hosted at www.guitaretab.com. Chordie works as a search engine and provides on-the-fly formatting. Chordie does not index songs against artists/composers will. To remove this song please click here.

This song is displayed as text-only. Transposing and tuning is only available for chordpro-songs.

Login - add to songbook

Rating click stars to rate

Layout
Accuracy

SHARE PAGE  

You need to log in to post comments