Tabalahan

Grin Department

 |--3-3-3-5------|

|--3-3-3-5------|
|---------------|(Repeat 8times)
|---------------|
|---2-3-5-------|
|-3-------------|
Verse 1:
 |--3-3-3-5------|
 |--3-3-3-5------|
 |---------------|(Repaeat 6times)
 |---------------|
 |---2-3-5-------|
 |-3-------------|

Tayo\'y laging magkasama sa trouble at ginhawa
Hindi kita iiwan kahit mali pinag bibigyan ngunit...

 |--3-3-3-5------|
 |--3-3-3-5------|
 |---------------|(Repaeat 7times)
 |---------------|
 |---2-3-5-------|
 |-3-------------|

Kaibigan ba kita,bakit ka nananabla?
Sa ere ng iiwan ka,nananananabla ka.

Chorus:
 GC-D
 Suntokan na lang   
 GC-D
 Sapakan  na lang   
 GC-D
 Tadyakan na lang   
 GCD
 Sakalan  na lang sampalan na lang
 |--3-3-3-5------|
 |--3-3-3-5------|
 |---------------|(Repaeat 4times)
 |---------------|
 |---2-3-5-------|
 |-3-------------|

Tirahan sa pwet, sa pwet,sa pwet(what?),sa pwede(ano?)
Verse 2:
 |--3-3-3-5------|
 |--3-3-3-5------|
 |---------------|(Repaeat 7times)
 |---------------|
 |---2-3-5-------|
 |-3-------------|

Pag ang barkada may lakad syempre lagi kang kasama
Pag sami ang yong porma lagi kang nag bibilat
Nagpapa-cute.........Cute mo...
 |--3-3-3-5------|
 |--3-3-3-5------|
 |---------------|(Repaeat 6times)
 |---------------|
 |---2-3-5-------|
 |-3-------------|

Pag sa syota may problema ka,tinutulongan pa kita
Pag solve ng love story mo walang tenkyu sabay laho ohh..
Ang baho ng trip mo ...
Do chords: G-C-D
mini mini mini mini mini mini..
 |--3-3-3-5------|
 |--3-3-3-5------|
 |---------------|(Repaeat 11times)
 |---------------|
 |---2-3-5-------|
 |-3-------------|

Gayon nga pag may problema ka tinutulongan ka
Pag ako ang may problema dumadagdag ka pa aahhh..
Ang kapal ng mukha mo!!
Pag ako ang may pera syempre meron ka
Pag ako walang pera nana nananabla ka..
Chorus 2:
Chords: G-C-D
Suntokan na lang
Sapakan na lang
Tadyakan na lang
Sakalan na lang
Sampalan na lang
Tirahan (16x)
Tirahan sa pweeetttt....
Huwag lang magsasaksakan..
Huwag lang magbabarilan...
Huwag lang madugong patayan..
Dahil kaibigan parin kita..aahhhh ahh..
Bakit ka nananabla?
Sa ere ng iiwan ka..
Na na na na na na na
 nanananananana
 na naaaaaa aahhhhhhhh aaahhhhhhh
Na nanabla ka aahhhhh..ahh..
+++++++++++++++++++++++++++++++++++++++++++++++++++++++++++++++++++++++++
This song is tablahan about kaibigan..Pero makulit siya..Tirahan daw sa
pwet..hahahaha...Paki rate po if u like the song..peace..For any comments
pls e-mail me at kl4zik_guit4r@yahoo.com
Tnx..


C D G
variations - click chord images
Transpose chords:
Tuning:
Cool service:
View: Size:
A  A  A
Rating:
Layout:
  • Currently 2.5/5 Stars.
  • 1
  • 2
  • 3
  • 4
  • 5
 
Accuracy:
  • Currently 2.6/5 Stars.
  • 1
  • 2
  • 3
  • 4
  • 5
 
click stars to rate
Chordie recommends:
Check out JamPlay.com for online video guitar lessons
Songbook:
Login to add this song to your songbook
Support the artist
Preview/buy this song
MSN Music
Why this non-profit ad?

 
login to add comments/video/corrections