""; ?> 8 Pa by Grin Department - guitar chords, guitar tabs and lyrics - chordie
 DDA
Intro: e--------------|-------------|--------------|
       B--------7-----|------7------|------5---7--9|
Gtr 1  G-----7-----7--|--------7----|--------6-----|
       D---7----------|----7--------|----7---------|
       A--------------|--5----------|--0-----------|
       E--------------|-------------|--------------|


 DDA
       e--------------|-------------|------------------|
       B--------7-----|------7------|------5---7---5---|
       G-----7-----7--|--------7----|--------7---7---7-|
       D---7----------|----7--------|----7-------------|
       A--------------|--5----------|--0---------------|
       E--------------|-------------|------------------|


Verse:
(pareho ang po lahat ng tako ang gtr1. maintain lang po nyo ang gtr1 hangang
ang kanta.)
 DDA
       e--------------|-------------|------------------|
       B--------7-----|------7------|------5---7---5---|
Gtr 1  G-----7-----7--|--------7----|--------7---7---7-|
       D---7----------|----7--------|----7-------------|
       A--------------|--5----------|--0---------------|
       E--------------|-------------|------------------|

 DDA
       e--------------|-------------|------------------|
       B--------------|-------------|------------------|
Gtr 2  G---7----------|-------------|------------------|
       D--------------|-------------|------------------|
       A--------------|----5--------|----0-------------|
       E--------------|-------------|------------------|


Lunes hanggan sabado puro nalang trabaho
At pag sapit ng linggo kailangang may trabaho
Maganda na racket kung bakit para lagging may laman ang aking wallet
Ang panget ang pangit ng lagging nakasabit
Bitin sa hangin ang bukas pag walang makain
Wag na akung tanongin
Kung may bigas pang isasaing sakit na isipin taas na ng bilihin
Pilitin mong abutin kita mo makakaraos din. Oh yeh 2X.

Noong una nyo paba kayang naalala
sa hahehihohu nayron akung ibinibinta
specila offer day 2X
shampoo day 2X
may lebre kayong toothpaste

(pagdating po ditto ito nalang po ang gamitin nyong gtr2.at pareho lang po ang gtr1.)
may lebre kayong toothbrush
may lebre kayong toothpaste
may lebre kayong toothbrush

       e--------------|-------------|------------------|
       B--------------|-------------|------------------|
Gtr 2  G--------------|-------------|------------------|
       D--------------|-------------|------------------|
       A--------------|----9-----5--|------------------|
       E---5----------|-------------|---3---5----------|


(sa chorus po strum nyo nalang po ang gtr2. maintain lang po ang gtr1)

Chorus:
At saka po candy 2X
At saka po cheso 2X
At saka po kerot 2X
At saka po ketchup…

 DDA
       e--------------|-------------|------------------|
       B--------7-----|------7------|------5---7---5---|
Gtr 1  G-----7-----7--|--------7----|--------7---7---7-|
       D---7----------|----7--------|----7-------------|
       A--------------|--5----------|--0---------------|
       E--------------|-------------|------------------|


 DDA
       e-----x---------|-----x--------|-------x-----------|
       B-----7---------|-----7--------|-------5-----------|
Gtr 2  G-----7---------|-----7--------|-------7-----------|
       D-----7---------|-----7--------|-------7-----------|
       A-----x---------|-----5--------|-------x-----------|
       E-----x---------|-----x--------|-------x-----------|


Verse:
(gamitin nyo lang po ang verse na chords.)

Kaya ngayon hito nanaman ako
Nag bebusiness ng kung anu-ano
Mayrong ballpen, pentilpen at pwede mo rin akong maging boyfriend
Basta seven uuwi na ako sa amin
Kadi mayroon pa akung gagawin
Magpapasusu nitong alaga ko tuta haha..

(ditto po hanging sa baba e strum nyo nalang ang gtr2.)
(di kona po alam ang lyrics search nayo nalang po..)

oi mayrong sang chick gusto nya raw ankung ma meet
omorder sya sakin at bibili ng meat
tong aking longanisa ang kanyang kursonada
kasi malaki kasi mataba at mahaba
akoy kanyang niyaya doon sa kanila
wag raw akong mahiya siya'y nag iisa
olekana 2X patitikim kona
osigena 2X o malapit na
oetona 2x ilalabas ko na etona naku naku
otinda kong lunganisa otindako otindaku 2X

here we go 2x at ang ngyari akoy na wili
makwento sya kasi at hindi korny
ginawa ko ng lahat sa kanya at wala ng boundary
sinakyan ko na sya kasi sinakyan nya na rin ako

ngunit ng bilangin ko ng bilangin ko nong inabot nya sa palad ko
kulang pa sabi ko kulang pa tanung nya'y mag kanu

(miss 2x otso pa otso pang ibayad mo) 2X


A D
variations - click chord images
Transpose chords:
Tuning:
Cool service:
View: Size:
A  A  A
Rating:
Layout:
  • Currently 3.3/5 Stars.
  • 1
  • 2
  • 3
  • 4
  • 5
 
Accuracy:
  • Currently 5/5 Stars.
  • 1
  • 2
  • 3
  • 4
  • 5
 
click stars to rate
Chordie recommends:
Get acoustic guitar lessons and electric guitar lessons at JamPlay.com
Songbook:
Login to add this song to your songbook
Support the artist
Preview/buy this song
MSN Music
Why this non-profit ad?

 
login to add comments/video/corrections