Guitar Tabs, Chords and Lyrics


Railrider   Grinspoon




Artist: Grinspoon
Song: Railrider
Album: Guide to better living

Drop D Tuning (low to high: D A D G B E)

Intro

(Bass) (play 4 times)
|------------|--------------------------|
|------------|--------------------------|
|------------|--------------------------|
|--------x--|---------------------------|
|--(5*)--x--|----3-5-----3----3-5-------|
|--------x--|--0-----0-3----0-----3-2---|
fdbk. p.s.
* vary pitch by bending string


Linker

|------------------------------|
|------------------------------|
|------------------------------|
|--/10-10-10-10-10-10-10-10-3--|
|--/10-10-10-10-10-10-10-10-3--|
|--/10-10-10-10-10-10-10-10-3--|


Verses
(play 2 times)
|-------------------------------------------------------------------|
|-------------------------------------------------------------------|
|-------------------------------------------------------------------|
|--0-0-0-3---0-0-0--3-3-0-3-0-2-3---0-0-0-3---0-0-0--3-3-0-3-0-2----|
|--0-0-0-3---0-0-0--3-3-0-3-0-2-3---0-0-0-3---0-0-0--3-3-0-3-0-2-3--|
|--0-0-0-3---0-0-0--3-3-0-3-0-2-3---0-0-0-3---0-0-0--3-3-0-3-0-2----|

1. Something out of nowhere, like a bullet from a gun
Old railrider, riding in the sun
And you preach like a jesus, but you act like a man
All the lies your teaching, lend another one's hand

2. Get your bed un made, with a joker's grin
And I heard you knocking, but I couldn't get in with the door locked
Oh god you look fantastic, times never been so drastic
Work nights for a ***ing piece of plastic

3. Something out of somewhere, like a bullet from a gun
Old railrider, riding in the sun
And you preach like a jesus, but you act like a man
All the lies you teaching, lend another one's hand


Chorus


(repeat 3rd time) (3rd only)
|------------------------------------------------------------|-----0----|
|------------------------------------------------------------|------0---|
|------------------------------------------------------------|-------0--|
|-0-3-2-3-6-5-3-0-3-2-3-8-8-8-0-3-2-3-6-5-3-0-3-2-3-5-5-5----|-0~-----0-|
|-0-3-2-3-6-5-3-0-3-2-3-8-8-8-0-3-2-3-6-5-3-0-3-2-3-5-5-5-3--|-0~-------|
|-0-3-2-3-6-5-3-0-3-2-3-8-8-8-0-3-2-3-6-5-3-0-3-2-3-5-5-5-3b-|-0~-------|

1. Old railrider
Old railride

2.,3. Old railrider (x2)
Can't get much higher
Old rail


Pre-Solo (Bass only)

It's what you get when you love like a hypocrite
And the bloods on your hand, but you can't see ***
It's what you get when you look like a hypocrite
Already, quit it


Solo

(play 4 times)
|-------------------|
|-------------------|
|-------------------|
|-----3-------5-4-3-|
|-3h5---3-3-3-------|
|-------------------|


Interlude

(play 4 times)
|--------------------------------|
|--------------------------------|
|--------------------------------|
|-10-10-12-12-12-10-10-10-9-9-15-|
|-10-10-12-12-12-10-10-10-9-9-15-|
|-10-10-12-12-12-10-10-10-9-9-15-|

It's what you get when you love like a hypocrite
And the bloods on your hand, but you can't see ***
It's what you get when you look like a hypocrite
Already, quit it

(play 4 times)
|---------------------------------------------|------|
|---------------------------------------------|------|
|---------------------------------------------|------|
|-8-8-8-8-3-3-3-0-0-0-0-3-0-10-10-10-10-10-10-|--0~--|
|-8-8-8-8-3-3-3-0-0-0-0-3-0-10-10-10-10-10-10-|--0~--|
|-8-8-8-8-3-3-3-0-0-0-0-3-0-10-10-10-10-10-10-|--0~--|
	


Important: The song above is NOT stored on the Chordie server. The original song is hosted at www.guitaretab.com. Chordie works as a search engine and provides on-the-fly formatting. Chordie does not index songs against artists'/composers' will. To remove this song please click here.

This song is displayed as text-only. Transposing and tuning is only available for chordpro-songs.

Login - add to songbook

Rating click stars to rate

Layout
Accuracy

SHARE PAGE  




You need to log in to post comments