Guitar Tabs, Chords and Lyrics


Tractor Rape Chain  Guided By Voices



     [Asus2]            [A]         [Asus4]         [A]   [Asus2]      [A]      [A]  [Asus2]      [A]                             
  ---0--0--0--0--------------------0--0--0--0--0--0--0--0--
  ---0--0--0--0--0--0--0--0--0--0--2--2--2--2--2--2--2--2--
  ---2--2--2--2--6--6--6--7--7--7--2--4--2--2--2--2--4--2--
  ---2--2--2--2--7--7--7--7--7--7--2--2--2--2--2--2--2--2--
  ---0--0--0--0--0--0--0--0--0--0--0--0--0--0--0--0--0--0--
  ---------------------------------------------------------

chorus chords (not in order)

         [A]     [A/G#]       [Bm]      [D]      [E]     [F#m]                                                 
       --0-----0-----2-----2-----0-----2------
       --2-----2-----3-----3-----0-----2------
       --2-----2-----4-----2-----1-----2------
       --2-----2-----4-----0-----2-----4------
       --0-----0-----2-----------2-----4------
       --------4-----2-----------0-----2------


****** how it all goes together ******

(acoustic intro not included)

(play verse progression 2x no vocals....)

(then continue to play verse progression while singing...)

    [Asus2]why is it [A]everytime [Asus4]i think [A]ab[Asus2]out yo[A]u   [A]   [Asus2]      [A]
    [Asus2]something that you [A]have said or [Asus4]implied
    makes me [A]do[Asus2]ubt yo[A]u  [A]   [Asus2]      [A]
    [Asus2]then i look into your [A]cynical[Asus4] eyes
    and i[A] k[Asus2]now it[A]    [A]   [Asus2]      [A]
    [Asus2]as if it never meant [A]anything [Asus4]to me

(chorus)
    [D]parallel lines on a slow decline   [A]tractor rape chain[A/G#]
    [D]better yet  lets [Bm]all get wet  on the [A]tractor rape chain[F#m]
    [E]speed up slow down go [D]all around in the end

(again, play verse progression 2x no vocals....)

(..and continue to play verse progression while singing...)

    [Asus2]in the first place its [A]probably [Asus4]just para[A]no[Asus2]ia    [A]   [A]   [Asus2]      [A]
    [Asus2]but theres a ghost in my [A]room
    and he [Asus4]says i better r[A]un[Asus2]      [A]  [A]  [Asus2]      [A]
    [Asus2]its a thing i [A]know   its a [Asus4]thing i b[A]eli[Asus2]eve in[A]  [A]  [Asus2]      [A]
    won't you [E]tell it to go away?

(repeat chorus)


...questions, comments and corrections to jeffnmoe@mcs.com


Important: The song above is NOT stored on the Chordie server. The original song is hosted at www.guitaretab.com. Chordie works as a search engine and provides on-the-fly formatting. Chordie does not index songs against artists'/composers' will. To remove this song please click here.

Text color:
Chord color:
Chord grids: 
Font size:    
Page size: 

A A/G# Asus2 Asus4 Bm D E F#m
variations - click chord images

Login - add to songbook

Transpose chords

Tuning

Rating click stars to rate

Layout
Accuracy

SHARE PAGE  




You need to log in to post comments