Sweet Child O Mine Acoustic

Guns N'Roses

E|-------------------------------------------|

B|-------------------------------------------|
G|--------7-----------8---7------------------| 2X
D|---0--------7--5------7---8----------------|
A|-------------------------------------------|
E|-------------------------------------------|
E|-------------------------------------------|
B|-----------------8---7---------------------|
G|------7------------7---7-------------------| 2X
D|--------7---5------------------------------|
A|---7---------------------------------------|
E|-------------------------------------------|
E|-------------------------------------------|
B|------------------8-----7------------------|
G|----0--7------------7-----7----------------| 2X
D|----------7--5-----------------------------|
A|-------------------------------------------|
E|-------------------------------------------|
E|-------------------------------------------|
B|--5-------5---7---8----7---5---------------|
G|------7-------------------------- 7--------|
D|----7---7---7---7----7---7---7-------------|
A|-------------------------------------------|
E|-------------------------------------------|

 D
 She's got smile that it seems to me
 CC9C
reminds me of childhood memories,
 GD
Where everything was as fresh as the bright blue sky
 D
 Now and then When I see her face
 CC9C
she takes me away to that special place,
 G
and if I stared too long,
 D
I'd probably break down and cry


 AmCD
Woah, woah, woah, sweet child o' mine
 AmCD
Woah, oh, oh, oh, sweet love of mine



(Solo 1) -> Base (D C9 G)
E|--------------------------------------------------------------9--11--9-----|

B|-9--7--6--6--9--7--6--6---9--7-----9--7------9--7--9--7--9-----------------|
G|-------------------------------8-8-------8-8----------------------------10-|
D|---------------------------------------------------------------------------|
A|---------------------------------------------------------------------------|
E|---------------------------------------------------------------------------|

 D
 She's got eyes of the bluest skies,
 CC9C
as if they thought of rain
 G
I hate to look into those eyes
 D
and see anounce of pain
 D
 Her hair reminds me of a warm safe place
 CC9C
where as a child I'd hide,
 G
And pray for the thunder and the rain
 D
to quietly pass me by


 AmCD
Woah, woah, woah, sweet child o' mine
 AmCD
Woah, oh, oh, oh, sweet love o' mine



(Solo 2) -> Base (D C G)


 AmCD
Woah, oh, oh, oh, sweet child o' mine                2X
 AmCD
Woah, oh, oh, oh, sweet love o' mine


(Solo 3) -> Base (Em C B A) 4x (Em G A C D) 4x
 EmG
 Where do we go? Where do we go now?
 AmCD
 Where do we go?     
 EmG
 Where do we go? Where do we go?
 AmCD
 Where do we go now?     
 EmG
 Where do we go? Sweet child, where do we go now?
 AmCD
 Where do we go?     
 EmG
 Where do we go? Where do we go now?
 AmCD
 Where do we go?      
 EmG
 Where do we go? Where do we go?
 AmCD
 Where do we go now?  

 EDBAmGFEm
 No, no, no, no, no, no, no
 GAmCDEm
Sweet child, sweet chiiilldddd of of mine


Corrected by jwrhold. View original
Am B C C9 D E Em F G
variations - click chord images
Transpose chords:
Tuning:
Cool service:
View: Size:
A  A  A
Rating:
Layout:
  • Currently 2.8/5 Stars.
  • 1
  • 2
  • 3
  • 4
  • 5
 
Accuracy:
  • Currently 2.5/5 Stars.
  • 1
  • 2
  • 3
  • 4
  • 5
 
click stars to rate
Chordie recommends:
Get acoustic guitar lessons and electric guitar lessons at JamPlay.com
Songbook:
Login to add this song to your songbook
Support the artist
Preview/buy this song
MSN Music
Why this non-profit ad?

 
login to add comments/video/corrections