Guitar Tabs, Chords and Lyrics
Major upgrade!! After one year development the new version of Chordie is now online! Please give feedback.


Let Him Roll   Guy Clark

 
 E|----------------|0-------0-------|----------------|----------------|
 B|------------1-3-|------------31--|---1---1---1---1|--0---1-13---3--|
 G|----------0-----|----------------|02--02--02--02--|----------------|
 D|----------------|--2---2---2-----|--3---3---3---3-|-----------0----|
 A|------------0-2-|3---3---3-------|----------------|--2---2-2-------|
 E|----------------|----------------|----------------|3---3-----------|

 


 


 [C] h[G] [C] [F]h h h h [G] h


 

 
 E|----------------|0-------0-------|----------------|----------------|
 B|--1---130---1-3-|------------31--|---1---1---1---1|--0---1-13---3--|
 G|----------0-----|----------------|02--02--02--02--|----------------|
 D|--2---2---------|--2---2---2-----|--3---3---3---3-|-----------0----|
 A|3---3-------0-2-|3---3---3-------|----------------|--2---2-2-------|
 E|--------3-------|----------------|----------------|3---3-----------|


Important: The song above is NOT stored on the Chordie server. The original song is hosted at www.guitaretab.com. Chordie works as a search engine and provides on-the-fly formatting. Chordie does not index songs against artists'/composers' will. To remove this song please click here.

This song is displayed as text-only. Transposing and tuning is only available for chordpro-songs.
Rate #4 of 7 versions

Jango Player

Login - add to songbook

SHARE PAGE  




You need to log in to post comments