Guitar Tabs, Chords and Lyrics


Americanized   Gwar





intro Repeat 2x's
------------------------------------------------------------------------|
------------------------------------------------------------------------|
------------------------------------------------------------------------|
-7-------10------7-------10---7-------10--------------------------------|
-7-------10------7-------10---7-------10----7-slide 3 ------------------|
-5-slide 8-------5-slide 8----5-slide 8---------------------------------|
Light pulm mute

Verses repeat 4x's
------------------------------------------------------------------------|
------------------------------------------------------------------------|
------------------------------------------------------------------------|
-10---10---10-----------------7---7---7---------------------------------|
-10---10---10-----------------7---7---7---------------------------------|
-8----8----8-88888888888------5---5---555555555555----------------------|

chorus

------------------------------------------------------------------------|
------------------------------------------------------------------------|
------------------------------------------------------------------------|
-5---------------5----5-----5------------5---5------5-------------------|
-5-------------003--003-00--5----------003-003--00--5-------------------|
-3--------------------------3-----------------------3-------------------|


intro
verse
chorus
verse
chorus


Important: The song above is NOT stored on the Chordie server. The original song is hosted at www.guitaretab.com. Chordie works as a search engine and provides on-the-fly formatting. Chordie does not index songs against artists/composers will. To remove this song please click here.

This song is displayed as text-only. Transposing and tuning is only available for chordpro-songs.

Login - add to songbook

Rating click stars to rate

Layout
Accuracy

SHARE PAGE  




You need to log in to post comments