Guitar Tabs, Chords and Lyrics


Ring Of Fire   Unknown



H-Blockx - Ring Of Fire
Submitted By: guitarfreak


A cool Coverversion of this Johnny Cash classic.


Standard Tuning


Intro/Fill

e--------------------------|
B--------------------------|
G--------------------------|
D--------------------------|
A--------------------------|
E-0--1---3-3-----0-1-3-3---|


Main Riff

e--------------------------------------------------------------|
B--------------------------------------------------------------|
G--7--7-7--7---7--9-5-7---------------4--4-4--4---4--5-2-4-----|
D--x--x-x--x---x--x-x-x---------------x--x-x--x---x--x-x-x-5---|
A--5--5-5--5---5--7-3-5---------------2--2-2--2---2--3-0-2-x---|
E----------------------------------------------------------3---|


Chorus

e-----------------|
B-----------------|
G--7-------5------|
D--7-------5--5---|
A--5-------3--5---|


Important: The song above is NOT stored on the Chordie server. The original song is hosted at www.guitaretab.com. Chordie works as a search engine and provides on-the-fly formatting. Chordie does not index songs against artists'/composers' will. To remove this song please click here.

This song is displayed as text-only. Transposing and tuning is only available for chordpro-songs.

Login - add to songbook

Rating click stars to rate

Layout
Accuracy

SHARE PAGE  




You need to log in to post comments