""; ?> Give To Live by Sammy Hagar - guitar chords, guitar tabs and lyrics - chordie

Give To Live

Sammy Hagar

                             --------------


 EmADG
    I can see that you've got fire in your eyes 
 ADDsus4DDsus4D
   and pain inside your heart    
 EmADBm
    So many things have come that torn your world apart
 GA Fill 1 
   So baby, baby don't give up     
Chorus:
N.C D G A Asus4 A
If you want love, you've got to give a little
 DGA Fill 2 
        If you want faith, you've got to believe a little     
 DEmF#mA
        If you want peace, then turn your cheek a little 
 BmGA
        You've got to give, you've got to give,
 F#mBm
        you've got to give to live
Verse 2:
An empty hand reaching out for someone
An empty heart takes so little to fill
It's so much easier to push instead of pull
  Fill 1 
   So baby, baby, don't give up     
Chorus
Bridge:
 CG
        Each man's a country in his own right
 DA Fill 3 
        and ev'rybody needs a friend     
 CG
        One friend, one god, one country
  Fill 1 
                              D  Dsus4  D
no man need de-fend no, no
Verse 3:
 EmADBm
    I believe in faith and destination
 GADDsus4DDsus4D
   So much of that lies on our own hands    
So if you know what you want,
well then you can go out and get it
  Fill 4  Fill 2 
   So baby, baby      oh baby, don't you ever give up     
  "smells good bere" 
Chorus
*
 DGA
        If you want love, if you want faith, you wanna believe
 DG
        you wanna love somebody, you wanna share your love
 A
        you wanna give your love
 DGA
        Give a little bit, give a little bit, give a little bit . . .
Fill 1:
   |------------------------------------------------
   |---------2-------------2--------------2---------
   |-------2---2-2-------2---2-2--------2---2-2-----
   |-----2-------------2--------------2-------------
   |--0---------------------------------------------
   |----------------3--------------2-------------0--

T
Fill 2:
|fast|
   |------------------------------------------------
   |----2--3--2--0----------------------------------
   |---2------------2--0----------------------------
   |--2-------------------4--2--0-------------------
   |------------------------------------------------
   |------------------------------------------------

Fill 3:
   |------------------------------------------------
   |------------------------------------------------
   |----------------2-------------------------------
   |----------2--4------2--3-3----------------------
   |--(2)//4----------------------------------------
   |------------------------------------------------

Fill 4:
   |--3--/--5--5--5--5--\--3--3---------------------
   |--3--/--5--5--5--5--\--3--3---------------------
   |--0-----0--0--0--0-----0--0---------------------
   |--0-----0--0--0--0-----0--0---------------------
   |------------------------------------------------
   |------------------------------------------------

The 'G' and the 'A' chord change during the song. Play them :
E A D G B e
G 3 2 0 0 3 3
A X 0 3 3 3 0
until the '*'. And in the last part (marked with the '*'):
E A D G B e
 G355433A577655
                                        What does ... mean?
/ slide up
// fast slide up
T play with your thumb
The chords were mainly figured out by the original Tabber MATT TROMMER
(trommer@igd.fhg.de)
Enjoy!
Thomas Brandl (ThomasB@t-online.de)


A Bm C D Dsus4 Em F#m G
variations - click chord images
Transpose chords:
Tuning:
Cool service:
View: Size:
A  A  A
Rating:
Layout:
  • Currently 3.1/5 Stars.
  • 1
  • 2
  • 3
  • 4
  • 5
 
Accuracy:
  • Currently 2.2/5 Stars.
  • 1
  • 2
  • 3
  • 4
  • 5
 
click stars to rate
Chordie recommends:
Learn to play guitar with video-based, online guitar lessons at JamPlay.com
Songbook:
Login to add this song to your songbook
Support the artist
Preview/buy this song
MSN Music
Why this non-profit ad?

 
login to add comments/video/corrections