"yes"; ?> You Said Goodnight by Hale - guitar chords, guitar tabs and lyrics - chordie

You Said Goodnight

Hale

 EA
e----7-----------0--------|
B----7-----------0--------|
G----9----8-9----6--------|
D----9-----------7--------|
A----7-----------7--------|
E----------------5--------|

(MATAGAL ANG STRUM S E)

 C#mB
e----0-----------0--------|
B----0-----------0--------|
G----0-----------0--------|
D----11----------9--------|
A----11----------9--------|
E----9-----------7--------|


Verse:(DO THE CHORDS ABOVE)

 E
Take me as you are
 A
Push me off the road
 C#m
The sadness
 BA
I need this time to be with you
 E
I'm freezing in the sun
 A
I'm burning in the rain
 C#m
The silence
 BA
I'm screaming, calling out your name

Refrain:
 C#mB
e----0-----------0--------|
B----0-----------0--------|
G----0-----------0--------|
D----11----------9--------|
A----11----------9--------|
E----9-----------7--------|


 AB
e----0-----------0--------|
B----0-----------0--------|
G----0-----------0--------|
D----7-----------9--------|
A----7-----------9--------|
E----5-----------7--------|


The lead to this

 C#mBAB
e-------------------0----------------0---------0------|
B-----------------------0----------0---------------0--|
G---9-8-----------9---8----------6-----------9---8----|
D-------9---------------------------------------------|
A-----------------------------------------------------|
E-------------------------------5---------------------|


 C#mB
And I do reside in your light here
 AB
Put out the fire with me and find
Yeah, you'll lose the side of your circles
That's what I'll do if we say goodbye
Chorus: (LIGHT DISTORTION)
 EB
To be is all I gotta be
 F#m
And all that I see
 A
And all that I need is time
 EB
To me the life you gave me
 C#m-A
The day you said goodnight

REPEAT INTRO

Verse:
The calmness in your face
That I see through the night
The warmth of your, your light is pressing unto us

You didn't ask me why
I never would have known
Oblivion is falling down

Repeat Refrain
Repeat Chorus

Bridge:
 C#mBA
    If you could only know me like your prayers at night
C#m B A B pause
Then everything between to you and me will be all right

Repeat Chorus
 EB
To be is all I gotta be
 F#m
And all that I see
 A
And all that I need is time

(DO THIS WHEN YOU HEAR NEED)
e---------------|
B--10-9---------|
G-------11--9---|
D---------------|
A---------------|
E---------------|


 EB
To me the life you gave me
 C#m-A-
The day you said goodnight

(DO THIS AFTER WHEN YOU HEAR ME)
e---------------|
B---------------|
G-------(7)-----|
D----(7)--------|
A---------(7)---|
E---------------|harmonics


(use chords here E- B- C#m- A the lead to this)
e---11-12-11-12-11----------|
B-----------------12--------|
G---------------------------|
D---------------------------|
A---------------------------|
E---------------------------|


 EB
 She's already taken,
 F#m
 She's already taken
 A
She's already taken me

She's already taken,
She's already taken,
 C#m-A-
She's already taken me

 EB
e-----------------------|
B----9-10-9------4-5-4--|
G----9-----------4------|
D----9-----------4------|
A-----------------------|
E-----------------------|


 A
The day you said goodnight  

\m/rock on!!!


A B C#m E F#m
variations - click chord images
Transpose chords:
Tuning:
Cool service:
View: Size:
A  A  A
Rating:
Layout:
  • Currently 5/5 Stars.
  • 1
  • 2
  • 3
  • 4
  • 5
 
Accuracy:
  • Currently 4/5 Stars.
  • 1
  • 2
  • 3
  • 4
  • 5
 
click stars to rate
Chordie recommends:
Learn to play this song & others via video guitar lessons at JamPlay.com
Songbook:
Login to add this song to your songbook
Support the artist
Preview/buy this song
MSN Music
Why this non-profit ad?

 
login to add comments/video/corrections