"yes"; ?> The Day You Said Goodnight by Hale - guitar chords, guitar tabs and lyrics - chordie

The Day You Said Goodnight

Hale

--------------------------------------------------------------------------------


 12
     E                                 x04440      A
1 * * * 2 * * * 3 * * * 4 * * * 1 * * * 2 * * * 3 * * * 4 * * *
  e|-0-----0---0-0-----0---0-0---0-0-|---------0-----------------------|
  B|-0-----0---0-0-----0---0-0---0-0-|-4-------0---1-------------------|
  G|-1-----1---1-1-----1---1-1---1-1-|-4-----------1-------------------|
  D|-2-----2---2-2-----2---2-2---2-2-|-4-----------1-------------------|
  A|-2-------------------------------|-0-----------0-------------------|
  E|-0-------------------------------|---------------------------------|

Take me

VERSE I

 1
  as you are
 2
  push me off the road

 34
     x44400      B           x24400    x02200
1 * * * 2 * * * 3 * * * 4 * * * 1 * * * 2 * * * 3 * * * 4 * * *
  e|-------0-----------------0-----0-|-------------0-------------------|
  B|-0-----0-t---4-----------0-----0-|-0-----0-0-0-0-------------------|
  G|-4-----4-a---4-----------4-----4-|-2-----2-2-2-2-------------------|
  D|-4-----4-p---4-----------4-------|-2-----2-2-2-2-------------------|
  A|-4-----------2-----------2-------|-0-----0-0-0-0-------------------|
  E|---------------------------------|---------------------------------|

the sadness I need this time to be with you

VERSE II (same as VERSE I)

I'm freezing in the sun
I'm burning in the rain
the silence
I'm screaming calling out your name

REFRAIN I

x46600 A x01100
and I do reside in your light
204400 B
put out the fire with me and find

REFRAIN II (same as REFRAIN I except last chord)
yeah you'll lose the side of your circles
that's what I'll do if we say goodbye

 5
     B           x24400
1 * * * 2 * * * 3 * * * 4 * * *
  e|-2-----2-2-2-0-0-0-0-0-0-0-0-0-0-|
  B|-4-----4-4-4-0-0-0-0-0-0-0-0-0-0-|
  G|-4-----4-4-4-4-4-4-4-4-4-4-4-4-4-|
  D|-4-----4-4-4-4-4-4-4-4-4-4-4-4-4-|
  A|-2-----2-2-2-0-0-0-0-0-0-0-0-0-0-|
  E|---------------------------------|

to

CHORUS I
022200 E B
be is all I gotta be and all that I see

 6
     204400                    446600
1 * * * 2 * * * 3 * * * 4 * * *
  e|-0-----0-0-0-0-----0---0-0-0---x-|
  B|-0-----0-0-0-0-----0---0-0-0---x-|
  G|-4-----4-4-4-4-----4---4-4-6---x-|
  D|-4-----4-4-4-4-----4---4-4-6---x-|
  A|-0-----0-0-0-0-----0---0-0-4---x-|
  E|-2-----2-2-2-2-----2---2-2-4---x-|

and all that I
x02200
need this time

(chords same as above)

to me the life you gave me
the day you said goodnight

AD LIB (same as INTRO)

VERSE III (same as verse I)
the calmness in your face
that I see through the night
the warmth of your light is pressing unto us

VERSE IV (same as VERSE I)
you didn't ask me why
I never would have known
oblivion is falling down

(repeat REFRAIN I)

(repeat REFRAIN II)

(repeat CHORUS I)

BRIDGE I
x46600 B x24400 x02200 x02200
if you could only know me like your prayers at night
x46600 B x2400 204400 B
then everything between you and me will be alright

CHORUS III (light strumming)

011100 E B
to be is all I gotta be
204400 x02200 x02200
and all that I see and all that I need this time

(chords same as above)
to me the life you gave me
the day you said goodnight

BRIDGE II
 EB
    she's already taken 
204400
she's already taken
x02200
she's already taken me
 EB
    she's already taken 
(6) x02200
she's already taken me

ENDING

022200 E B
1 * * * 2 * * * 3 * * * 4 * * * 1 * * * 2 * * * 3 * * * 4 * * *
  e|-0-----0---0-0-------------------|-2-----2---2-2-------------------|
  B|-0-----0---0-0-------------------|-4-----4---4-4-------------------|
  G|-2-----2---2-1-------------------|-4-----4---4-4-------------------|
  D|-2-----2---2-2-------------------|-4-----4---4-4-------------------|
  A|-2-----2---2-2-------------------|-2-----2---2-2-------------------|
  E|-0-----0---0-0-------------------|---------------------------------|

the day you said good-

204400 x02200
1 * * * 2 * * * 3 * * * 4 * * * 1 * * * 2 * * * 3 * * * 4 * * *
  e|-0-------------------------------|-0-------------------------------|
  B|-0-------------------------------|-0-------------------------------|
  G|-4-------------------------------|-2-------------------------------|
  D|-4-------------------------------|-2-------------------------------|
  A|-0-------------------------------|-0-------------------------------|
  E|-2-------------------------------|---------------------------------|

night

===============================================================================


B E
variations - click chord images
Transpose chords:
Tuning:
Cool service:
View: Size:
A  A  A
Rating:
Layout:
  • Currently 2.9/5 Stars.
  • 1
  • 2
  • 3
  • 4
  • 5
 
Accuracy:
  • Currently 2.7/5 Stars.
  • 1
  • 2
  • 3
  • 4
  • 5
 
click stars to rate
Chordie recommends:
Get acoustic guitar lessons and electric guitar lessons at JamPlay.com
Songbook:
Login to add this song to your songbook
Support the artist
Preview/buy this song
MSN Music
Why this non-profit ad?

 
login to add comments/video/corrections