Guitar Tabs, Chords and Lyrics


Out Of Touch  Hall and Oates

[Amin]              [G]              [G6]              [F]             [Fmaj7]                                                            
e|---5---     e|---3---     e|---0---     e|---1---    e|---0---
B|---5---     B|---3---     B|---0---     B|---1---    B|---1---
G|---5---     G|---4---     G|---0---     G|---2---    G|---2---
D|---7---     D|---5---     D|---0---     D|---3---    D|---3---
A|---7---     A|---5---     A|---0(X)-    A|---3---    A|---X---
E|---5---     E|---3---     E|---0(X)-    E|---1---    E|---X---


E Cadd9 G/B Amin(open) Amin(add11)/D
e|---0---     e|---3---     e|---3---     e|---0---    e|---0---
B|---0---     B|---3---     B|---3---     B|---1---    B|---1---
G|---1---     G|---0---     G|---0---     G|---2---    G|---2---
D|---2---     D|---2---     D|---0---     D|---2---    D|---0---
A|---2---     A|---3---     A|---2---     A|---0---    A|---X---
E|---0---     E|---X---     E|---X---     E|---X---    E|---X---


[D]              [Dmin7]                                                                                                    
e|---5---     e|---5---
B|---3---     B|---2---
G|---3---     G|---5---
D|---3---     D|---3---
A|---5---     A|---5---
E|---5---     E|---5---


VERSE 1-
[G]Shakin' up is all that we know
[F]Usin' our bodies up as we go
[G]I'm wakin' up to a fantasy
[F]The shades all around aren't the colors we used to see

e|---------------3----------3---------0--------------------------------
B|---------------3----------3---------1--------------------------------
G|------------0----------0---------2-----------------------------------
D|---------2----------0---------2--------------------------------------
A|------3----------2---------0-----------------------------------------
E|---------------------------------------------------------------------

Cadd9 G/B Amin(open)
Broken ice still melts in the sun
[F]And ties that are broken can't often be one ag[G]ain

e|---------------3----------3---------0--------------------------------
B|---------------3----------3---------1--------------------------------
G|------------0----------0---------2-----------------------------------
D|---------2----------0---------2--------------------------------------
A|------3----------2---------0-----------------------------------------
E|---------------------------------------------------------------------

Cadd9 G/B Amin(open)
We're soul alone, and soul really matters to me
[F]Take a look around

CHORUS 1
[F]You're out of touch
[Amin(add11)/D]I'm out of time   [G]
[Amin]But I'm out[G6] of my hea[Fmaj7]d when you're not [E]around
[F]You're out of touch
[Amin(add11)/D]I'm out of time   [G]
[Amin]But I'm out[G] of my hea[Amin]d when you're not [G]around
[F]           [Amin(add11)/D]                     [G]    [Amin] 
VERSE 2
[G]Reachin' out for something to hold
[F]Lookin' for a love where the climate is cold
[G]Manic moves, and drowsy dreams
[F]Or (We're) livin' in the middle between the two extremes

e|---------------3----------3---------0--------------------------------
B|---------------3----------3---------1--------------------------------
G|------------0----------0---------2-----------------------------------
D|---------2----------0---------2--------------------------------------
A|------3----------2---------0-----------------------------------------
E|---------------------------------------------------------------------

Cadd9 G/B Amin(open)
Smokin' guns, hot to the touch
[F]Would cool down if we didn't use 'em so mu[G]ch

e|------------------------------------0--------------------------------
B|------------------------------------1--------------------------------
G|------------0----------0---------2-----------------------------------
D|---------2----------0---------2--------------------------------------
A|------3----------2---------0-----------------------------------------
E|---------------------------------------------------------------------

Cadd9 G/B Amin(open)
We're soul alone, and soul really matters to me
[F]Too much

CHORUS 2
[F]You're out of touch
[Amin(add11)/D]I'm out of time   [G]
[Amin]But I'm out[G6] of my hea[Fmaj7]d when you're not [E]around
[F]You're out of touch
[Amin(add11)/D]I'm out of time   [G]
[Amin]But I'm out[G] of my hea[Amin]d when you're not [G]around
[F]Ooh
[Amin(add11)/D]Oh-woh-oh         [G]
[Amin]Oh-woh-oh ([G6]oooooooooo[Fmaj7]ooo. . .)         [E]
[F]Ooh
[Amin(add11)/D]Oh-woh-oh (ohhhhhh[G]hhhhhhhh, that's right . . .)

BRIDGE - Key change here - play the following chord progression as Daryl freestyles and T-Bone shows off...

[D]        [Dm7]           [D]        [Dm7]         [D] [Dm7] 

CHORUS 3 - The band sings the third chorus a cappela, clapping out the beat - there's a
short break right before "FINAL CHORUS" (after the band sings their last "you're out of
touch" in "CHORUS 3"), where they strum out . . .

E E E E . . . about 12 times

and then . . .

FINAL CHORUS
[F]You're out of touch
[Amin(add11)/D]I'm out of time   [G]
[Amin]But I'm out[G6] of my hea[Fmaj7]d when you're not [E]around
[F]You're out of touch
[Amin(add11)/D]I'm out of time   [G]
[Amin]But I'm out[G] of my hea[Amin]d when you're not [G]around . . .

Repeat this progression over and over again as Daryl freestyles, and when the song
finally comes to and end, bang out an "Amin" as the closing chord.

NOTE: If some of this tablature seems unclear (i.e. the rhythm, the timing, the
transitions, the ending, etc.), just listen to the song - it should be pretty self-explanatory.
Also, feel free to replace "Amin(add11)/D" with a basic "Dm" if it sounds better.
This tab should also work fairly well with the studio recording.

Important: The song above is NOT stored on the Chordie server. The original song is hosted at www.guitaretab.com. Chordie works as a search engine and provides on-the-fly formatting. Chordie does not index songs against artists'/composers' will. To remove this song please click here.

Text color:
Chord color:
Chord grids: 
Font size:    
Page size: 

Amin D Dm7 Dmin7 E F Fmaj7 G G6
variations - click chord images

Login - add to songbook

Transpose chords

Tuning

Rating click stars to rate

Layout
Accuracy

SHARE PAGE  




You need to log in to post comments