Im Just A Kid Dont Make Me Feel Like A Man

Hall and Oates

E----------0---------------0----------------------|

B--------3---3-----------3---3--------------------|
G------0-------0-------2-------2------------------|
D----2-----------2---0-----------0----------------|
A--0---------------0------------------------------|
E-------------------------------------------------|
E----------0---------------0----------------------|
B--------3---3-----------3---3--------------------|
G------0-------0-------2-------2------------------|
D----2-----------2---0-----------0------repeat..--|
A--0---------------0------------------------------|
E-------------------------------------------------|
E-----------------------------------3----------------|
B--------0------------3-----------1------------------|
G------0------------2-----------0--------------------|
D----2------------4-----------2----------------------|
A--3------------2-----------0------------------------|
E----------------------------------------------------|
 Cmaj7Bm7Am7
"Won't you talk.."

Chorus:

 CBm7
 Will you survive..     

 Am7D
 I know you can't..      

Verse: (Same chords as before, but I think they're strummed this time, not picked)

Chorus: (Same)

Bridge: (Comes in at 2:35 in the recording)

 Db/EbCm7Bbm7
 (x66666)    (8A8888)    (686666)       (A = 10)
"Damn you.."

 D/EC#m7Bm7
 (x77777)    (9B9999)     (797777)      (B = 11)
"Damn you.."

Final Chorus: (Now a full step higher in terms of key)

 DC#m7
  Will you survive..    

 Bm7E
 I know you can't..       

etc..

dontpoll@aol.com


Am7 Bbm7 Bm7 C C#m7 Cm7 Cmaj7 D D/E E
variations - click chord images
Transpose chords:
Tuning:
Cool service:
View: Size:
A  A  A
Rating:
Layout:
  • Currently 2.8/5 Stars.
  • 1
  • 2
  • 3
  • 4
  • 5
 
Accuracy:
  • Currently 3.1/5 Stars.
  • 1
  • 2
  • 3
  • 4
  • 5
 
click stars to rate
Chordie recommends:
Learn how to play guitar at JamPlay.com
Songbook:
Login to add this song to your songbook
Support the artist
Preview/buy this song
MSN Music
Why this non-profit ad?

 
login to add comments/video/corrections