Guitar Tabs, Chords and Lyrics


Angel Of Mercy   Hammerfall



Intro:(clean)                                 
============= 
eb |-----------------------------------|----------|--------------|
Bb |-----------------------------------|----------|--------------|
Gb |-----------------------------------|-7---7----|--------------|
Db |-9---9---9---9---10---10---7---7---|---7---7--|-7---7---7----|
Ab |---7---7---7---7----7----7---7---7-|----------|---5---5---5--|
Eb |-----------------------------------|----------|--------------|
     
 
Then:
=====
  |-------------------------------------------------------------|
  |-------------------------------------------------------------|
  |-------------------------------------------------------------|
  |-------------------------------------------------------------|
  |-2------------2//////////------------------------------------|
  |-0------------0//////////------------------------------------|

Main riff:
==========
  |-------------------------------------------------------------|
  |-------------------------------------------------------------|
  |-------------------------------------------------------------|
  |----------9-5-2---------9-5-7---------9-5-2---------9---5555-|
  |-2-2-2-2--7-3-0-2-2-2-2-7-3-5-2-2-2-2-7-3-0-2-2-2-2-7-2-3333-|
  |-0-0-0-0--------0-0-0-0-------0-0-0-0-------0-0-0-0---0------|
    . . . .        . . . .       . . . .       . . . .   . ........

Then:
===== 
  |-------------------------------------------------------------|
  |-------------------------------------------------------------|
  |-------------------------------------------------------------|          
  |-5-5-5-4-4-4-2-2-2-2-2-4-------------------------------------|    
  |-3-3-3-2-2-2-0-0-0-0-0-2-------------------------------------|   
  |-------------------------------------------------------------|
    . . . . . . . . . . . .
Before the solo:
================
  |-------------------------------------------------------------|
  |-------------------------------------------------------------|
  |-------------------------------------------------------------|
  |-----------------------------------7/9-----------------------|
  |-2-2-4/5-2-2-4/5-2-2-4/5-2-2-4/5-2-5/7-----------------------|
  |-0-0-2/3-0-0-2/3-0-0-2/3-0-0-2/3-0---------------------------|
    . .     . .     . .     . .     .

Legend:
.=Palm mute


Important: The song above is NOT stored on the Chordie server. The original song is hosted at www.guitaretab.com. Chordie works as a search engine and provides on-the-fly formatting. Chordie does not index songs against artists'/composers' will. To remove this song please click here.

This song is displayed as text-only. Transposing and tuning is only available for chordpro-songs.

Login - add to songbook

Rating click stars to rate

Layout
Accuracy

SHARE PAGE  




You need to log in to post comments