Im So Lonesome I Could Cry

Hank Williams Jr.

:---------:--------------------:
:---------:----0--0-----0--0---:
:---------:----1--1-----1--1---:
:-------1-:-2------------------:
:-2--4----:--------------------:
:---------:----------0---------:
:-----------------------------:
:----0------------------------:
:----1------------------------:
:----------h----1--2----------:
:--------2---4--------2-----2-:
:-0----------------------4----:


E (REPEAT)
:-----------------------------:
:-------0----0--------0----0--:
:-------1----1--------1----1--:
:-----------------------------:
:-----------------------------:
:--0------------0-------------:


 A
:-----------------------------:
:-------2----2---------2----2-:
:-------2----2---------2----2-:
:-----------------------------:
:--0--------------0-----------:
:-----------------------------: 


 B7
:---------------------------:
:-------0----0--------------:
:-------2----2--------------:
:---------------------------:
:--2------------------------:
:---------------------------:


FILL 1
:----------------------------:
:----------------------------:
:----------------------------:
:----------------------------:
:--2---------2---------------:
:-------4---------0----------:        


FILL 2
:----------------------------:
:----------------------------:
:----------------------------:
:----------------------------:
:----------------------------:
:--0-0----2----4-------------:      


 E
 HEAR THE LONESOME WHIPERWILL
(FILL2)
HE SOUNDS TOO BLUE TO FLY
 AE
 THE MIDNIGHT TRAIN IS WHINING LOW
B7 E (FILL1)
I'M SO LONESOME I COULD CRY

 E
 I'VE NEVER SEEN A NIGHT SO LONG
(FILL2)
WHEN TIME GOES CRAWLING BY
 AE
 THE MOON JUST WENT BEHIND A CLOUD
B7 E (FILL1)
TO HIDE IT'S FACE AND CRY

 E
 DID YOU EVER SEE A ROBIN WEEP
(FILL2)
WHEN LEAVES BEGIN TO DIE
 AE
 THAT MEANS HE'S LOST THE WILL TO LIVE
B7 E (FILL1)
I'M SO LONESOME I COULD CRY

 E
 THE SILENCE OF A FALLING STAR
(FILL2)
LIGHTS UP A PURPLE SKY
 AE
 AND AS I WONDER WHERE YOU ARE
 B7E
I'M SO LONESOME I COULD CRY

NOTE: I LIKE TO MUTE THE BASS LINE AND FINGER PICK THE
HIGHER NOTES


A B7 E
variations - click chord images
Transpose chords:
Tuning:
Cool service:
View: Size:
A  A  A
Rating:
Layout:
  • Currently 2/5 Stars.
  • 1
  • 2
  • 3
  • 4
  • 5
 
Accuracy:
  • Currently 2.2/5 Stars.
  • 1
  • 2
  • 3
  • 4
  • 5
 
click stars to rate
Chordie recommends:
Learn how to play guitar at JamPlay.com
Songbook:
Login to add this song to your songbook
Support the artist
Preview/buy this song
MSN Music
Why this non-profit ad?

 
login to add comments/video/corrections