""; ?> by Unknown - guitar chords, guitar tabs and lyrics - chordie
 G
E||-------|-------3----------3----|--------------------------|
B||-------|-------0----------0----|--------------------------|
G||-------|-------0----------0----|--------------------------|
D||-------|-------0----------0----|-----------------------0--|
A||-------|-------2----------2----|-----0--2-----3--2--0-----|
E||-------|--3---------3--3-------|--3--------3--------------|


 GG
|-------3----------3----|--------------------------|-----------------------|
|-------0----------0----|--------------------------|-------0----------0----|
|-------0----------0----|--------------------------|-------0----------0----|
|-------0----------0----|-----------------------0--|-------0----------0----|
|-------2----------2----|-----0--2-----3--2--0-----|-------2----------2----|
|--3---------3--3-------|--3--------3--------------|--3---------3--3-------|
               |----3-----------------------------------|      G
|-----------------------------|-------------------------|
|-----------------------------|-------0----------0------|
|-----------------------------|-------0----------0------|
|-----------------------------|-------0----------0------|
|-----0--2-----3----2----0----|-------2----------2------|
|--3--------3-----------------|--3---------3--3---------|


 G
|--------------------------|-------3----------3----|
|--------------------------|-------0----------0----|
|--------------------------|-------0----------0----|
|-----------------------0--|-------0----------0----|
|-----0--2-----3--2--0-----|-------2----------2----|
|--3--------3--------------|--3---------3--3-------|


Verse 1
               |----3-----------------------------------------------------------|       G
|-----------------------------|-------3----------3----|-------3--3--------------|
|-----------------------------|-------0----------0----|-------0--0--------------|
|-----------------------------|-------0----------0----|-------0--0--------------|
|-----------------------------|-------0----------0----|-------0--0--------------|
|-----0--2-----3----2----0----|-------2----------2----|-------2--2--------------|
|--3--------3-----------------|--3---------3--3-------|--3----------3----2------|


 EmCG
|----0----0------------|---0---0--0-------------|-------3----------3----|
|----0----0------------|---1---1--1-------------|-------0----------0----|
|----0----0------------|---0---0--0-------------|-------0----------0----|
|----2----2------------|---2---2--2-------------|-------0----------0----|
|----2----2-------3----|---3---3--3--3--2--0----|-------2----------2----|
|----0----0------------|------------------------|--3---------3--3-------|


 EmC
|-------3--3------------|----------------------|--0----0--0-------------|
|-------0--0------------|--0----0--------------|--1----1--1-------------|
|-------0--0------------|--0----0--------------|--0----0--0-------------|
|-------0--0------------|--2----2--------------|--2----2--2-------------|
|-------2--2------------|--2----2---------3----|--3----3--3--3--2--0----|
|--3----------3----2----|--0----0--------------|------------------------|


 GEmD5
|-----------------------|-----------------------|------------------------|
|-------0----------0----|--0----0---0---0--0----|---0---0--0-------3--3--|
|-------0----------0----|--0----0---0---0--0----|---0---0--0-------2--2--|
|-------0----------0----|--2----2---2---2--2----|---2---2--2--0----0--0--|
|-------2-------2--2----|--2----2---2---2--2----|---2---2--2-------------|
|--3---------3--3-------|--0----0---0---0--0----|---0---0--0-------------|


 GEmD5C
|-------------------3----|----------------------|-------------------|
|-------------------0----|-------0---------3----|--1----------------|
|-------------------0----|-------0---------2----|--0----------------|
|-------------------0----|-------2---------0----|--2----------------|
|--3p--2--0---------2----|-------2---------0----|--3----------------|
|--------------3----3----|-------0--------------|-------------------|


Chorus
 GG
|-----------------------|--------------------------|-----------------------|
|-------0----------0----|--------------------------|-------0----------0----|
|-------0----------0----|--------------------------|-------0----------0----|
|-------0----------0----|-----------------------0--|-------0----------0----|
|-------2-------2--2----|-----0--2-----3--2--0-----|-------2-------2--2----|
|--3---------3--3-------|--3--------3--------------|--3---------3--3-------|


 G
|--------------------------|-----------------------|--------------------------|
|--------------------------|-------0----------0----|--------------------------|
|--------------------------|-------0----------0----|--------------------------|
|-----------------------0--|-------0----------0----|-----------------------0--|
|-----0--2-----3--2--0-----|-------2-------2--2----|-----0--2-----3--2--0-----|
|--3--------3--------------|--3---------3--3-------|--3--------3--------------|
   G                                   |----3-----------|
|-----------------------|-------------------------------|
|-------0----------0----|-------------------------------|
|-------0----------0----|-------------------------------|
|-------0----------0----|-------------------------------|
|-------2-------2--2----|-----0--2-----3----2----0------|
|--3---------3--3-------|--3--------3-------------------|


Verse 2
 G
|-------3----------3----|-------3--3------------|
|-------0----------0----|-------0--0------------|
|-------0----------0----|-------0--0------------|
|-------0----------0----|-------0--0------------|
|-------2----------2----|-------2--2------------|
|--3---------3--3-------|--3----------3----2----|


 EmCG
|----0----0------------|---0---0--0-------------|-------3----------3----|
|----0----0------------|---1---1--1-------------|-------0----------0----|
|----0----0------------|---0---0--0-------------|-------0----------0----|
|----2----2------------|---2---2--2-------------|-------0----------0----|
|----2----2-------3----|---3---3--3--3--2--0----|-------2----------2----|
|----0----0------------|------------------------|--3---------3--3-------|


 EmC
|-------3--3------------|----------------------|--0----0--0-------------|
|-------0--0------------|--0----0--------------|--1----1--1-------------|
|-------0--0------------|--0----0--------------|--0----0--0-------------|
|-------0--0------------|--2----2--------------|--2----2--2-------------|
|-------2--2------------|--2----2---------3----|--3----3--3--3--2--0----|
|--3----------3----2----|--0----0--------------|------------------------|


 GEmD5
|-----------------------|-----------------------|------------------------|
|-------0----------0----|--0----0---0---0--0----|---0---0--0-------3--3--|
|-------0----------0----|--0----0---0---0--0----|---0---0--0-------2--2--|
|-------0----------0----|--2----2---2---2--2----|---2---2--2--0----0--0--|
|-------2-------2--2----|--2----2---2---2--2----|---2---2--2-------------|
|--3---------3--3-------|--0----0---0---0--0----|---0---0--0-------------|


 GEmD5C
|-------------------3----|----------------------|-------------------|
|-------------------0----|-------0---------3----|--1----------------|
|-------------------0----|-------0---------2----|--0----------------|
|-------------------0----|-------2---------0----|--2----------------|
|--3p--2--0---------2----|-------2---------0----|--3----------------|
|--------------3----3----|-------0--------------|-------------------|


Chorus
 GG
|-----------------------|--------------------------|-----------------------|
|-------0----------0----|--------------------------|-------0----------0----|
|-------0----------0----|--------------------------|-------0----------0----|
|-------0----------0----|-----------------------0--|-------0----------0----|
|-------2----------2----|-----0--2-----3--2--0-----|-------2----------2----|
|--3---------3--3-------|--3--------3--------------|--3---------3--3-------|


 G
|--------------------------|-----------------------|--------------------------|
|--------------------------|-------0----------0----|--------------------------|
|--------------------------|-------0----------0----|--------------------------|
|-----------------------0--|-------0----------0----|-----------------------0--|
|-----0--2-----3--2--0-----|-------2----------2----|-----0--2-----3--2--0-----|
|--3--------3--------------|--3---------3--3-------|--3--------3--------------|
   G                                   |----3-----------|
|-----------------------|-------------------------------|
|-------0----------0----|-------------------------------|
|-------0----------0----|-------------------------------|
|-------0----------0----|-------------------------------|
|-------2----------2----|-----0--2-----3----2----0------|
|--3---------3--3-------|--3--------3-------------------|


Verse 3
 G
|-------3----------3----|-------3--3------------|
|-------0----------0----|-------0--0------------|
|-------0----------0----|-------0--0------------|
|-------0----------0----|-------0--0------------|
|-------2----------2----|-------2--2------------|
|--3---------3--3-------|--3----------3----2----|


 EmCG
|----0----0------------|---0---0--0-------------|-------3----------3----|
|----0----0------------|---1---1--1-------------|-------0----------0----|
|----0----0------------|---0---0--0-------------|-------0----------0----|
|----2----2------------|---2---2--2-------------|-------0----------0----|
|----2----2-------3----|---3---3--3--3--2--0----|-------2----------2----|
|----0----0------------|------------------------|--3---------3--3-------|


 EmC
|-------3--3------------|----------------------|--0----0--0-------------|
|-------0--0------------|--0----0--------------|--1----1--1-------------|
|-------0--0------------|--0----0--------------|--0----0--0-------------|
|-------0--0------------|--2----2--------------|--2----2--2-------------|
|-------2--2------------|--2----2---------3----|--3----3--3--3--2--0----|
|--3----------3----2----|--0----0--------------|------------------------|


 GEmD5
|-----------------------|-----------------------|------------------------|
|-------0----------0----|--0----0---0---0--0----|---0---0--0-------3--3--|
|-------0----------0----|--0----0---0---0--0----|---0---0--0-------2--2--|
|-------0----------0----|--2----2---2---2--2----|---2---2--2--0----0--0--|
|-------2-------2--2----|--2----2---2---2--2----|---2---2--2-------------|
|--3---------3--3-------|--0----0---0---0--0----|---0---0--0-------------|


 GEmD5C
|-------------------3----|----------------------|--0----------------|
|-------------------0----|-------0---------3----|--1----------------|
|-------------------0----|-------0---------2----|--0----------------|
|-------------------0----|-------2---------0----|--2----------------|
|--3p--2--0---------2----|-------2---------0----|--3----------------|
|--------------3----3----|-------0--------------|-------------------|


 EmD5C
|----------------------|--0----------------|-(0)---------------|
|-------0---------3----|--1----------------|-(1)---------------|
|-------0---------2----|--0----------------|-(0)---------------|
|-------2---------0----|--2----------------|-(2)---------------|
|-------2---------0----|--3----------------|-(3)---------------|
|-------0--------------|-------------------|-------------------|


Outro
 GG
|-----------------------|---------------------------|-----------------------|
|-------0----------0----|---------------------------|-------0----------0----|
|-------0----------0----|---------------------------|-------0----------0----|
|-------0----------0----|------------------------0--|-------0----------0----|
|-------2----------2----|-----0--2----3--3-2--0-----|-------2----------2----|
|--3---------3--3-------|--3--------3---------------|--3---------3--3-------|
               |----3-----------------------------------|       G
|-----------------------------|-------------------------|
|-----------------------------|-------0----------0------|
|-----------------------------|-------0----------0------|
|-----------------------------|-------0----------0------|
|-----0--2-----3----2----0----|-------2----------2------|
|--3--------3-----------------|--3---------3--3---------|


 G
|--------------------------|-----------------------|
|--------------------------|-------0----------0----|
|--------------------------|-------0----------0----|
|-----------------------0--|-------0----------0----|
|-----0--2-----3--2--0-----|-------2----------2----|
|--3--------3--------------|--3---------3--3-------|
               |----3-----------------------------------|       G
|-----------------------------|-------------------------|
|-----------------------------|-------0----------0------|
|-----------------------------|-------0----------0------|
|-----------------------------|-------0----------0------|
|-----0--2-----3----2----0----|-------2----------2------|
|--3--------3-----------------|--3---------3--3---------|
               |----3---------------------------------|
|-----------------------------|-----------------------|
|-----------------------------|-----------------------|
|-----------------------------|-----------------------|
|-----------------------------|-----------------------|
|-----0--2-----3----2----0----|-----------------------|
|--3--------3-----------------|-----------3-----------|				



C D5 Em G
variations - click chord images
Transpose chords:
Tuning:
Cool service:
View: Size:
A  A  A
Rating:
Layout:
  • Currently 2.5/5 Stars.
  • 1
  • 2
  • 3
  • 4
  • 5
 
Accuracy:
  • Currently 3.1/5 Stars.
  • 1
  • 2
  • 3
  • 4
  • 5
 
click stars to rate
Chordie recommends:
Check out JamPlay.com for online video guitar lessons
Songbook:
Login to add this song to your songbook
Support the artist
Preview/buy this song
MSN Music
Why this non-profit ad?

 
login to add comments/video/corrections